  0
SECTION
  2
HEADER
  9
$ACADVER
  1
AC1015
  9
$ACADMAINTVER
 70
    18
  9
$DWGCODEPAGE
  3
ANSI_1252
  9
$INSBASE
 10
0.0
 20
0.0
 30
0.0
  9
$EXTMIN
 10
0.0
 20
0.0
 30
0.0
  9
$EXTMAX
 10
594.0
 20
420.0
 30
0.0
  9
$LIMMIN
 10
0.0
 20
0.0
  9
$LIMMAX
 10
594.0
 20
420.0
  9
$ORTHOMODE
 70
     0
  9
$REGENMODE
 70
     1
  9
$FILLMODE
 70
     1
  9
$QTEXTMODE
 70
     0
  9
$MIRRTEXT
 70
     0
  9
$LTSCALE
 40
1.0
  9
$ATTMODE
 70
     1
  9
$TEXTSIZE
 40
0.2
  9
$TRACEWID
 40
0.05
  9
$TEXTSTYLE
  7
Standard
  9
$CLAYER
  8
0
  9
$CELTYPE
  6
ByLayer
  9
$CECOLOR
 62
   256
  9
$CELTSCALE
 40
1.0
  9
$DISPSILH
 70
     0
  9
$DIMSCALE
 40
1.0
  9
$DIMASZ
 40
1.799999999999999
  9
$DIMEXO
 40
0.0625
  9
$DIMDLI
 40
0.38
  9
$DIMRND
 40
0.0
  9
$DIMDLE
 40
0.0
  9
$DIMEXE
 40
0.18
  9
$DIMTP
 40
0.0
  9
$DIMTM
 40
0.0
  9
$DIMTXT
 40
0.25
  9
$DIMCEN
 40
0.09
  9
$DIMTSZ
 40
0.0
  9
$DIMTOL
 70
     0
  9
$DIMLIM
 70
     0
  9
$DIMTIH
 70
     1
  9
$DIMTOH
 70
     1
  9
$DIMSE1
 70
     0
  9
$DIMSE2
 70
     0
  9
$DIMTAD
 70
     0
  9
$DIMZIN
 70
     0
  9
$DIMBLK
  1

  9
$DIMASO
 70
     1
  9
$DIMSHO
 70
     1
  9
$DIMPOST
  1

  9
$DIMAPOST
  1

  9
$DIMALT
 70
     0
  9
$DIMALTD
 70
     2
  9
$DIMALTF
 40
25.4
  9
$DIMLFAC
 40
1.0
  9
$DIMTOFL
 70
     0
  9
$DIMTVP
 40
0.0
  9
$DIMTIX
 70
     0
  9
$DIMSOXD
 70
     0
  9
$DIMSAH
 70
     0
  9
$DIMBLK1
  1

  9
$DIMBLK2
  1

  9
$DIMSTYLE
  2
Standard
  9
$DIMCLRD
 70
     0
  9
$DIMCLRE
 70
     0
  9
$DIMCLRT
 70
     0
  9
$DIMTFAC
 40
1.0
  9
$DIMGAP
 40
0.09
  9
$DIMJUST
 70
     0
  9
$DIMSD1
 70
     0
  9
$DIMSD2
 70
     0
  9
$DIMTOLJ
 70
     1
  9
$DIMTZIN
 70
     0
  9
$DIMALTZ
 70
     0
  9
$DIMALTTZ
 70
     0
  9
$DIMUPT
 70
     0
  9
$DIMDEC
 70
     4
  9
$DIMTDEC
 70
     4
  9
$DIMALTU
 70
     2
  9
$DIMALTTD
 70
     2
  9
$DIMTXSTY
  7
Standard
  9
$DIMAUNIT
 70
     0
  9
$DIMADEC
 70
     0
  9
$DIMALTRND
 40
0.0
  9
$DIMAZIN
 70
     0
  9
$DIMDSEP
 70
    46
  9
$DIMATFIT
 70
     3
  9
$DIMFRAC
 70
     0
  9
$DIMLDRBLK
  1

  9
$DIMLUNIT
 70
     2
  9
$DIMLWD
 70
    -2
  9
$DIMLWE
 70
    -2
  9
$DIMTMOVE
 70
     0
  9
$LUNITS
 70
     2
  9
$LUPREC
 70
     4
  9
$SKETCHINC
 40
0.1
  9
$FILLETRAD
 40
0.0
  9
$AUNITS
 70
     0
  9
$AUPREC
 70
     0
  9
$MENU
  1
.
  9
$ELEVATION
 40
0.0
  9
$PELEVATION
 40
0.0
  9
$THICKNESS
 40
0.0
  9
$LIMCHECK
 70
     0
  9
$CHAMFERA
 40
0.0
  9
$CHAMFERB
 40
0.0
  9
$CHAMFERC
 40
0.0
  9
$CHAMFERD
 40
0.0
  9
$SKPOLY
 70
     0
  9
$TDCREATE
 40
2453882.701893808
  9
$TDUCREATE
 40
2453882.285227142
  9
$TDUPDATE
 40
2453882.701893808
  9
$TDUUPDATE
 40
2453882.285227142
  9
$TDINDWG
 40
0.0000086806
  9
$TDUSRTIMER
 40
0.0000086806
  9
$USRTIMER
 70
     1
  9
$ANGBASE
 50
0.0
  9
$ANGDIR
 70
     0
  9
$PDMODE
 70
     0
  9
$PDSIZE
 40
0.0
  9
$PLINEWID
 40
0.0
  9
$SPLFRAME
 70
     0
  9
$SPLINETYPE
 70
     6
  9
$SPLINESEGS
 70
     8
  9
$HANDSEED
  5
204
  9
$SURFTAB1
 70
     6
  9
$SURFTAB2
 70
     6
  9
$SURFTYPE
 70
     6
  9
$SURFU
 70
     6
  9
$SURFV
 70
     6
  9
$UCSBASE
  2

  9
$UCSNAME
  2

  9
$UCSORG
 10
0.0
 20
0.0
 30
0.0
  9
$UCSXDIR
 10
1.0
 20
0.0
 30
0.0
  9
$UCSYDIR
 10
0.0
 20
1.0
 30
0.0
  9
$UCSORTHOREF
  2

  9
$UCSORTHOVIEW
 70
     0
  9
$UCSORGTOP
 10
0.0
 20
0.0
 30
0.0
  9
$UCSORGBOTTOM
 10
0.0
 20
0.0
 30
0.0
  9
$UCSORGLEFT
 10
0.0
 20
0.0
 30
0.0
  9
$UCSORGRIGHT
 10
0.0
 20
0.0
 30
0.0
  9
$UCSORGFRONT
 10
0.0
 20
0.0
 30
0.0
  9
$UCSORGBACK
 10
0.0
 20
0.0
 30
0.0
  9
$PUCSBASE
  2

  9
$PUCSNAME
  2

  9
$PUCSORG
 10
0.0
 20
0.0
 30
0.0
  9
$PUCSXDIR
 10
1.0
 20
0.0
 30
0.0
  9
$PUCSYDIR
 10
0.0
 20
1.0
 30
0.0
  9
$PUCSORTHOREF
  2

  9
$PUCSORTHOVIEW
 70
     0
  9
$PUCSORGTOP
 10
0.0
 20
0.0
 30
0.0
  9
$PUCSORGBOTTOM
 10
0.0
 20
0.0
 30
0.0
  9
$PUCSORGLEFT
 10
0.0
 20
0.0
 30
0.0
  9
$PUCSORGRIGHT
 10
0.0
 20
0.0
 30
0.0
  9
$PUCSORGFRONT
 10
0.0
 20
0.0
 30
0.0
  9
$PUCSORGBACK
 10
0.0
 20
0.0
 30
0.0
  9
$USERI1
 70
     0
  9
$USERI2
 70
     0
  9
$USERI3
 70
     0
  9
$USERI4
 70
     0
  9
$USERI5
 70
     0
  9
$USERR1
 40
0.0
  9
$USERR2
 40
0.0
  9
$USERR3
 40
0.0
  9
$USERR4
 40
0.0
  9
$USERR5
 40
0.0
  9
$WORLDVIEW
 70
     1
  9
$SHADEDGE
 70
     3
  9
$SHADEDIF
 70
    70
  9
$TILEMODE
 70
     1
  9
$MAXACTVP
 70
    64
  9
$PINSBASE
 10
0.0
 20
0.0
 30
0.0
  9
$PLIMCHECK
 70
     0
  9
$PEXTMIN
 10
0.0
 20
0.0
 30
0.0
  9
$PEXTMAX
 10
594.0
 20
420.0
 30
0.0
  9
$PLIMMIN
 10
0.0
 20
0.0
  9
$PLIMMAX
 10
594.0
 20
420.0
  9
$UNITMODE
 70
     0
  9
$VISRETAIN
 70
     1
  9
$PLINEGEN
 70
     0
  9
$PSLTSCALE
 70
     1
  9
$TREEDEPTH
 70
  3020
  9
$CMLSTYLE
  2
Standard
  9
$CMLJUST
 70
     0
  9
$CMLSCALE
 40
1.0
  9
$PROXYGRAPHICS
 70
     1
  9
$MEASUREMENT
 70
     1
  9
$CELWEIGHT
370
    -1
  9
$ENDCAPS
280
     0
  9
$JOINSTYLE
280
     0
  9
$LWDISPLAY
290
     0
  9
$INSUNITS
 70
     0
  9
$HYPERLINKBASE
  1

  9
$STYLESHEET
  1

  9
$XEDIT
290
     1
  9
$CEPSNTYPE
380
     0
  9
$PSTYLEMODE
290
     1
  9
$FINGERPRINTGUID
  2
{4CFC7890-A33D-417F-8862-E40E3F9C33B6}
  9
$VERSIONGUID
  2
{33D1E509-130C-47FC-9AF8-6F90259C5B8F}
  9
$EXTNAMES
290
     1
  9
$PSVPSCALE
 40
0.0
  9
$OLESTARTUP
290
     0
  0
ENDSEC
  0
SECTION
  2
CLASSES
  0
CLASS
  1
ACDBDICTIONARYWDFLT
  2
AcDbDictionaryWithDefault
  3
ObjectDBX Classes
 90
        0
280
     0
281
     0
  0
CLASS
  1
MATERIAL
  2
AcDbMaterial
  3
ObjectDBX Classes
 90
     1024
280
     0
281
     0
  0
CLASS
  1
VISUALSTYLE
  2
AcDbVisualStyle
  3
ObjectDBX Classes
 90
     4095
280
     0
281
     0
  0
CLASS
  1
TABLESTYLE
  2
AcDbTableStyle
  3
ObjectDBX Classes
 90
     4095
280
     0
281
     0
  0
CLASS
  1
DICTIONARYVAR
  2
AcDbDictionaryVar
  3
ObjectDBX Classes
 90
        0
280
     0
281
     0
  0
CLASS
  1
ACDBPLACEHOLDER
  2
AcDbPlaceHolder
  3
ObjectDBX Classes
 90
        0
280
     0
281
     0
  0
CLASS
  1
LAYOUT
  2
AcDbLayout
  3
ObjectDBX Classes
 90
        0
280
     0
281
     0
  0
ENDSEC
  0
SECTION
  2
TABLES
  0
TABLE
  2
VPORT
  5
8
330
0
100
AcDbSymbolTable
 70
     1
  0
VPORT
  5
28
330
8
100
AcDbSymbolTableRecord
100
AcDbViewportTableRecord
  2
*Active
 70
     0
 10
0.0
 20
0.0
 11
1.0
 21
1.0
 12
297.0
 22
210.0
 13
0.0
 23
0.0
 14
1.0
 24
1.0
 15
0.0
 25
0.0
 16
0.0
 26
0.0
 36
1.0
 17
0.0
 27
0.0
 37
0.0
 40
420.0
 41
1.414285714285714
 42
50.0
 43
0.0
 44
0.0
 50
0.0
 51
0.0
 71
     0
 72
   100
 73
     1
 74
     1
 75
     0
 76
     0
 77
     0
 78
     0
281
     0
 65
     1
110
0.0
120
0.0
130
0.0
111
1.0
121
0.0
131
0.0
112
0.0
122
1.0
132
0.0
 79
     0
146
0.0
  0
ENDTAB
  0
TABLE
  2
LTYPE
  5
5
330
0
100
AcDbSymbolTable
 70
    59
  0
LTYPE
  5
29
330
5
100
AcDbSymbolTableRecord
100
AcDbLinetypeTableRecord
  2
ByBlock
 70
     0
  3

 72
    65
 73
     0
 40
0.0
  0
LTYPE
  5
2A
330
5
100
AcDbSymbolTableRecord
100
AcDbLinetypeTableRecord
  2
ByLayer
 70
     0
  3

 72
    65
 73
     0
 40
0.0
  0
LTYPE
  5
2B
330
5
100
AcDbSymbolTableRecord
100
AcDbLinetypeTableRecord
  2
Continuous
 70
     0
  3
Solid line
 72
    65
 73
     0
 40
0.0
  0
LTYPE
  5
40
330
5
100
AcDbSymbolTableRecord
100
AcDbLinetypeTableRecord
  2
Section_View_Lines
 70
     0
  3
Section View Lines
 72
    65
 73
     4
 40
0.8406
 49
0.6614
 74
     0
 49
-0.0827
 74
     0
 49
0.0138
 74
     0
 49
-0.0827
 74
     0
  0
LTYPE
  5
41
330
5
100
AcDbSymbolTableRecord
100
AcDbLinetypeTableRecord
  2
CHAIN
 70
     0
  3
Chain ____ _ ____ _ ____ _ ____ _ ____ _ ____
 72
    65
 73
     4
 40
0.3543
 49
0.2362
 74
     0
 49
-0.0295
 74
     0
 49
0.0591
 74
     0
 49
-0.0295
 74
     0
  0
LTYPE
  5
42
330
5
100
AcDbSymbolTableRecord
100
AcDbLinetypeTableRecord
  2
DASH_DOT
 70
     0
  3
Dash dot _._._._._._._._._._._._._._._.
 72
    65
 73
     4
 40
0.182
 49
0.1181
 74
     0
 49
-0.0295
 74
     0
 49
0.0049
 74
     0
 49
-0.0295
 74
     0
  0
LTYPE
  5
43
330
5
100
AcDbSymbolTableRecord
100
AcDbLinetypeTableRecord
  2
DASH_DOUBLE_DOT
 70
     0
  3
Dash Double Dot __ __ . __ __ . __ __ . __ _
 72
    65
 73
     6
 40
0.2164
 49
0.1181
 74
     0
 49
-0.0295
 74
     0
 49
0.0049
 74
     0
 49
-0.0295
 74
     0
 49
0.0049
 74
     0
 49
-0.0295
 74
     0
  0
LTYPE
  5
44
330
5
100
AcDbSymbolTableRecord
100
AcDbLinetypeTableRecord
  2
DASH_TRIPLE_DOT
 70
     0
  3
Dash Triple-Dot _ . . . _ . . . _ . . . _
 72
    65
 73
     8
 40
0.2508
 49
0.1181
 74
     0
 49
-0.0295
 74
     0
 49
0.0049
 74
     0
 49
-0.0295
 74
     0
 49
0.0049
 74
     0
 49
-0.0295
 74
     0
 49
0.0049
 74
     0
 49
-0.0295
 74
     0
  0
LTYPE
  5
45
330
5
100
AcDbSymbolTableRecord
100
AcDbLinetypeTableRecord
  2
DASHED
 70
     0
  3
Dashed __ __ __ __ __ __ __ __ __ __ __ __ __ _
 72
    65
 73
     2
 40
0.2068
 49
0.1655
 74
     0
 49
-0.0413
 74
     0
  0
LTYPE
  5
46
330
5
100
AcDbSymbolTableRecord
100
AcDbLinetypeTableRecord
  2
DASHED_SPACE
 70
     0
  3
Dashed Space __ __ __ __ __ __ __ __ __ __ __ _
 72
    65
 73
     2
 40
0.2067
 49
0.1654
 74
     0
 49
-0.0413
 74
     0
  0
LTYPE
  5
47
330
5
100
AcDbSymbolTableRecord
100
AcDbLinetypeTableRecord
  2
DOTTED
 70
     0
  3
Dotted . . . . . . . . . . . . . . . . . . . . 
 72
    65
 73
     2
 40
0.0481
 49
0.0068
 74
     0
 49
-0.0413
 74
     0
  0
LTYPE
  5
48
330
5
100
AcDbSymbolTableRecord
100
AcDbLinetypeTableRecord
  2
DOUBLE_DASH_CHAIN
 70
     0
  3
Double Dash Chain ___ _ _ ___ _ _ ___ _ _ ___ _
 72
    65
 73
     6
 40
1.240299999999999
 49
0.6614
 74
     0
 49
-0.0827
 74
     0
 49
0.1654
 74
     0
 49
-0.0827
 74
     0
 49
0.1654
 74
     0
 49
-0.0827
 74
     0
  0
LTYPE
  5
49
330
5
100
AcDbSymbolTableRecord
100
AcDbLinetypeTableRecord
  2
DOUBLE_DASH_DOT
 70
     0
  3
Double Dash Dot __ __ . __ __ . __ __ . __ _
 72
    65
 73
     6
 40
0.3296
 49
0.1181
 74
     0
 49
-0.0295
 74
     0
 49
0.1181
 74
     0
 49
-0.0295
 74
     0
 49
0.0049
 74
     0
 49
-0.0295
 74
     0
  0
LTYPE
  5
4A
330
5
100
AcDbSymbolTableRecord
100
AcDbLinetypeTableRecord
  2
DOUBLE_DASH_DOUBLE_DOT
 70
     0
  3
Double Dash Double Dot _ _ . . _ _ . . _ _
 72
    65
 73
     8
 40
0.364
 49
0.1181
 74
     0
 49
-0.0295
 74
     0
 49
0.1181
 74
     0
 49
-0.0295
 74
     0
 49
0.0049
 74
     0
 49
-0.0295
 74
     0
 49
0.0049
 74
     0
 49
-0.0295
 74
     0
  0
LTYPE
  5
4B
330
5
100
AcDbSymbolTableRecord
100
AcDbLinetypeTableRecord
  2
DOUBLE_DASH_TRIPLE_DOT
 70
     0
  3
Double Dash Triple Dot __ __ . . . __ __ . . .
 72
    65
 73
    10
 40
0.3984
 49
0.1181
 74
     0
 49
-0.0295
 74
     0
 49
0.1181
 74
     0
 49
-0.0295
 74
     0
 49
0.0049
 74
     0
 49
-0.0295
 74
     0
 49
0.0049
 74
     0
 49
-0.0295
 74
     0
 49
0.0049
 74
     0
 49
-0.0295
 74
     0
  0
LTYPE
  5
4C
330
5
100
AcDbSymbolTableRecord
100
AcDbLinetypeTableRecord
  2
LONG_DASH_DOTTED
 70
     0
  3
Long Dash Dotted ____ . ____ . ____ . ____ . _
 72
    65
 73
     4
 40
0.3001
 49
0.2362
 74
     0
 49
-0.0295
 74
     0
 49
0.0049
 74
     0
 49
-0.0295
 74
     0
  0
LTYPE
  5
4D
330
5
100
AcDbSymbolTableRecord
100
AcDbLinetypeTableRecord
  2
LONG_DASH_DOUBLE_DOT
 70
     0
  3
Long Dash Double Dot ____ . . ____ . . ____ . .
 72
    65
 73
     6
 40
0.3345
 49
0.2362
 74
     0
 49
-0.0295
 74
     0
 49
0.0049
 74
     0
 49
-0.0295
 74
     0
 49
0.0049
 74
     0
 49
-0.0295
 74
     0
  0
LTYPE
  5
4E
330
5
100
AcDbSymbolTableRecord
100
AcDbLinetypeTableRecord
  2
LONG_DASH_TRIPLE_DOT
 70
     0
  3
Long Dash Triple Dot ____ ... ____ ... ____
 72
    65
 73
     8
 40
0.3689
 49
0.2362
 74
     0
 49
-0.0295
 74
     0
 49
0.0049
 74
     0
 49
-0.0295
 74
     0
 49
0.0049
 74
     0
 49
-0.0295
 74
     0
 49
0.0049
 74
     0
 49
-0.0295
 74
     0
  0
LTYPE
  5
4F
330
5
100
AcDbSymbolTableRecord
100
AcDbLinetypeTableRecord
  2
BORDER
 70
     0
  3
Border __ __ . __ __ . __ __ . __ __ . __ __ .
 72
    65
 73
     6
 40
44.45
 49
12.7
 74
     0
 49
-6.349999999999999
 74
     0
 49
12.7
 74
     0
 49
-6.349999999999999
 74
     0
 49
0.0
 74
     0
 49
-6.349999999999999
 74
     0
  0
LTYPE
  5
50
330
5
100
AcDbSymbolTableRecord
100
AcDbLinetypeTableRecord
  2
BORDER2
 70
     0
  3
Border (.5x) __.__.__.__.__.__.__.__.__.__.__.
 72
    65
 73
     6
 40
22.225
 49
6.349999999999999
 74
     0
 49
-3.174999999999999
 74
     0
 49
6.349999999999999
 74
     0
 49
-3.174999999999999
 74
     0
 49
0.0
 74
     0
 49
-3.174999999999999
 74
     0
  0
LTYPE
  5
51
330
5
100
AcDbSymbolTableRecord
100
AcDbLinetypeTableRecord
  2
BORDERX2
 70
     0
  3
Border (2x) ____  ____  .  ____  ____  .  ___
 72
    65
 73
     6
 40
88.9
 49
25.4
 74
     0
 49
-12.7
 74
     0
 49
25.4
 74
     0
 49
-12.7
 74
     0
 49
0.0
 74
     0
 49
-12.7
 74
     0
  0
LTYPE
  5
52
330
5
100
AcDbSymbolTableRecord
100
AcDbLinetypeTableRecord
  2
CENTER
 70
     0
  3
Center ____ _ ____ _ ____ _ ____ _ ____ _ ____
 72
    65
 73
     4
 40
50.8
 49
31.75
 74
     0
 49
-6.349999999999999
 74
     0
 49
6.349999999999999
 74
     0
 49
-6.349999999999999
 74
     0
  0
LTYPE
  5
53
330
5
100
AcDbSymbolTableRecord
100
AcDbLinetypeTableRecord
  2
CENTER2
 70
     0
  3
Center (.5x) ___ _ ___ _ ___ _ ___ _ ___ _ ___
 72
    65
 73
     4
 40
28.575
 49
19.05
 74
     0
 49
-3.174999999999999
 74
     0
 49
3.174999999999999
 74
     0
 49
-3.174999999999999
 74
     0
  0
LTYPE
  5
54
330
5
100
AcDbSymbolTableRecord
100
AcDbLinetypeTableRecord
  2
CENTERX2
 70
     0
  3
Center (2x) ________  __  ________  __  _____
 72
    65
 73
     4
 40
101.6
 49
63.5
 74
     0
 49
-12.7
 74
     0
 49
12.7
 74
     0
 49
-12.7
 74
     0
  0
LTYPE
  5
55
330
5
100
AcDbSymbolTableRecord
100
AcDbLinetypeTableRecord
  2
DASHDOT2
 70
     0
  3
Dash dot (.5x) _._._._._._._._._._._._._._._.
 72
    65
 73
     4
 40
12.7
 49
6.349999999999999
 74
     0
 49
-3.174999999999999
 74
     0
 49
0.0
 74
     0
 49
-3.174999999999999
 74
     0
  0
LTYPE
  5
56
330
5
100
AcDbSymbolTableRecord
100
AcDbLinetypeTableRecord
  2
DASHDOTX2
 70
     0
  3
Dash dot (2x) ____  .  ____  .  ____  .  ___
 72
    65
 73
     4
 40
50.8
 49
25.4
 74
     0
 49
-12.7
 74
     0
 49
0.0
 74
     0
 49
-12.7
 74
     0
  0
LTYPE
  5
57
330
5
100
AcDbSymbolTableRecord
100
AcDbLinetypeTableRecord
  2
DASHED2
 70
     0
  3
Dashed (.5x) _ _ _ _ _ _ _ _ _ _ _ _ _ _ _ _ _
 72
    65
 73
     2
 40
9.524999999999998
 49
6.349999999999999
 74
     0
 49
-3.174999999999999
 74
     0
  0
LTYPE
  5
58
330
5
100
AcDbSymbolTableRecord
100
AcDbLinetypeTableRecord
  2
DASHEDX2
 70
     0
  3
Dashed (2x) ____  ____  ____  ____  ____  ___
 72
    65
 73
     2
 40
38.1
 49
25.4
 74
     0
 49
-12.7
 74
     0
  0
LTYPE
  5
59
330
5
100
AcDbSymbolTableRecord
100
AcDbLinetypeTableRecord
  2
DIVIDE
 70
     0
  3
Divide ____ . . ____ . . ____ . . ____ . . ____
 72
    65
 73
     6
 40
31.75
 49
12.7
 74
     0
 49
-6.349999999999999
 74
     0
 49
0.0
 74
     0
 49
-6.349999999999999
 74
     0
 49
0.0
 74
     0
 49
-6.349999999999999
 74
     0
  0
LTYPE
  5
5A
330
5
100
AcDbSymbolTableRecord
100
AcDbLinetypeTableRecord
  2
DIVIDE2
 70
     0
  3
Divide (.5x) __..__..__..__..__..__..__..__.._
 72
    65
 73
     6
 40
15.875
 49
6.349999999999999
 74
     0
 49
-3.174999999999999
 74
     0
 49
0.0
 74
     0
 49
-3.174999999999999
 74
     0
 49
0.0
 74
     0
 49
-3.174999999999999
 74
     0
  0
LTYPE
  5
5B
330
5
100
AcDbSymbolTableRecord
100
AcDbLinetypeTableRecord
  2
DIVIDEX2
 70
     0
  3
Divide (2x) ________  .  .  ________  .  .  _
 72
    65
 73
     6
 40
63.49999999999999
 49
25.4
 74
     0
 49
-12.7
 74
     0
 49
0.0
 74
     0
 49
-12.7
 74
     0
 49
0.0
 74
     0
 49
-12.7
 74
     0
  0
LTYPE
  5
5C
330
5
100
AcDbSymbolTableRecord
100
AcDbLinetypeTableRecord
  2
DOT
 70
     0
  3
Dot . . . . . . . . . . . . . . . . . . . . . .
 72
    65
 73
     2
 40
6.349999999999999
 49
0.0
 74
     0
 49
-6.349999999999999
 74
     0
  0
LTYPE
  5
5D
330
5
100
AcDbSymbolTableRecord
100
AcDbLinetypeTableRecord
  2
DOT2
 70
     0
  3
Dot (.5x) .....................................
 72
    65
 73
     2
 40
3.174999999999999
 49
0.0
 74
     0
 49
-3.174999999999999
 74
     0
  0
LTYPE
  5
5E
330
5
100
AcDbSymbolTableRecord
100
AcDbLinetypeTableRecord
  2
DOTX2
 70
     0
  3
Dot (2x) .  .  .  .  .  .  .  .  .  .  .  .  . 
 72
    65
 73
     2
 40
12.7
 49
0.0
 74
     0
 49
-12.7
 74
     0
  0
LTYPE
  5
5F
330
5
100
AcDbSymbolTableRecord
100
AcDbLinetypeTableRecord
  2
HIDDEN
 70
     0
  3
Hidden __ __ __ __ __ __ __ __ __ __ __ __ __ _
 72
    65
 73
     2
 40
9.524999999999998
 49
6.349999999999999
 74
     0
 49
-3.174999999999999
 74
     0
  0
LTYPE
  5
60
330
5
100
AcDbSymbolTableRecord
100
AcDbLinetypeTableRecord
  2
HIDDEN2
 70
     0
  3
Hidden (.5x) _ _ _ _ _ _ _ _ _ _ _ _ _ _ _ _ _
 72
    65
 73
     2
 40
4.762499999999999
 49
3.174999999999999
 74
     0
 49
-1.587499999999999
 74
     0
  0
LTYPE
  5
61
330
5
100
AcDbSymbolTableRecord
100
AcDbLinetypeTableRecord
  2
HIDDENX2
 70
     0
  3
Hidden (2x) ____ ____ ____ ____ ____ ____ ____
 72
    65
 73
     2
 40
19.05
 49
12.7
 74
     0
 49
-6.349999999999999
 74
     0
  0
LTYPE
  5
62
330
5
100
AcDbSymbolTableRecord
100
AcDbLinetypeTableRecord
  2
PHANTOM
 70
     0
  3
Phantom ______  __  __  ______  __  __  ______
 72
    65
 73
     6
 40
63.5
 49
31.75
 74
     0
 49
-6.349999999999999
 74
     0
 49
6.349999999999999
 74
     0
 49
-6.349999999999999
 74
     0
 49
6.349999999999999
 74
     0
 49
-6.349999999999999
 74
     0
  0
LTYPE
  5
63
330
5
100
AcDbSymbolTableRecord
100
AcDbLinetypeTableRecord
  2
PHANTOM2
 70
     0
  3
Phantom (.5x) ___ _ _ ___ _ _ ___ _ _ ___ _ _
 72
    65
 73
     6
 40
31.75
 49
15.875
 74
     0
 49
-3.174999999999999
 74
     0
 49
3.174999999999999
 74
     0
 49
-3.174999999999999
 74
     0
 49
3.174999999999999
 74
     0
 49
-3.174999999999999
 74
     0
  0
LTYPE
  5
64
330
5
100
AcDbSymbolTableRecord
100
AcDbLinetypeTableRecord
  2
PHANTOMX2
 70
     0
  3
Phantom (2x) ____________    ____    ____   _
 72
    65
 73
     6
 40
127.0
 49
63.5
 74
     0
 49
-12.7
 74
     0
 49
12.7
 74
     0
 49
-12.7
 74
     0
 49
12.7
 74
     0
 49
-12.7
 74
     0
  0
LTYPE
  5
65
330
5
100
AcDbSymbolTableRecord
100
AcDbLinetypeTableRecord
  2
ACAD_ISO02W100
 70
     0
  3
ISO dash __ __ __ __ __ __ __ __ __ __ __ __ __
 72
    65
 73
     2
 40
15.0
 49
12.0
 74
     0
 49
-3.0
 74
     0
  0
LTYPE
  5
66
330
5
100
AcDbSymbolTableRecord
100
AcDbLinetypeTableRecord
  2
ACAD_ISO03W100
 70
     0
  3
ISO dash space __    __    __    __    __    __
 72
    65
 73
     2
 40
30.0
 49
12.0
 74
     0
 49
-18.0
 74
     0
  0
LTYPE
  5
67
330
5
100
AcDbSymbolTableRecord
100
AcDbLinetypeTableRecord
  2
ACAD_ISO04W100
 70
     0
  3
ISO long-dash dot ____ . ____ . ____ . ____ . _
 72
    65
 73
     4
 40
30.0
 49
24.0
 74
     0
 49
-3.0
 74
     0
 49
0.0
 74
     0
 49
-3.0
 74
     0
  0
LTYPE
  5
68
330
5
100
AcDbSymbolTableRecord
100
AcDbLinetypeTableRecord
  2
ACAD_ISO05W100
 70
     0
  3
ISO long-dash double-dot ____ .. ____ .. ____ .
 72
    65
 73
     6
 40
33.0
 49
24.0
 74
     0
 49
-3.0
 74
     0
 49
0.0
 74
     0
 49
-3.0
 74
     0
 49
0.0
 74
     0
 49
-3.0
 74
     0
  0
LTYPE
  5
69
330
5
100
AcDbSymbolTableRecord
100
AcDbLinetypeTableRecord
  2
ACAD_ISO06W100
 70
     0
  3
ISO long-dash triple-dot ____ ... ____ ... ____
 72
    65
 73
     8
 40
36.0
 49
24.0
 74
     0
 49
-3.0
 74
     0
 49
0.0
 74
     0
 49
-3.0
 74
     0
 49
0.0
 74
     0
 49
-3.0
 74
     0
 49
0.0
 74
     0
 49
-3.0
 74
     0
  0
LTYPE
  5
6A
330
5
100
AcDbSymbolTableRecord
100
AcDbLinetypeTableRecord
  2
ACAD_ISO07W100
 70
     0
  3
ISO dot . . . . . . . . . . . . . . . . . . . .
 72
    65
 73
     2
 40
3.0
 49
0.0
 74
     0
 49
-3.0
 74
     0
  0
LTYPE
  5
6B
330
5
100
AcDbSymbolTableRecord
100
AcDbLinetypeTableRecord
  2
ACAD_ISO08W100
 70
     0
  3
ISO long-dash short-dash ____ __ ____ __ ____ _
 72
    65
 73
     4
 40
36.0
 49
24.0
 74
     0
 49
-3.0
 74
     0
 49
6.0
 74
     0
 49
-3.0
 74
     0
  0
LTYPE
  5
6C
330
5
100
AcDbSymbolTableRecord
100
AcDbLinetypeTableRecord
  2
ACAD_ISO09W100
 70
     0
  3
ISO long-dash double-short-dash ____ __ __ ____
 72
    65
 73
     6
 40
45.0
 49
24.0
 74
     0
 49
-3.0
 74
     0
 49
6.0
 74
     0
 49
-3.0
 74
     0
 49
6.0
 74
     0
 49
-3.0
 74
     0
  0
LTYPE
  5
6D
330
5
100
AcDbSymbolTableRecord
100
AcDbLinetypeTableRecord
  2
ACAD_ISO10W100
 70
     0
  3
ISO dash dot __ . __ . __ . __ . __ . __ . __ .
 72
    65
 73
     4
 40
18.0
 49
12.0
 74
     0
 49
-3.0
 74
     0
 49
0.0
 74
     0
 49
-3.0
 74
     0
  0
LTYPE
  5
6E
330
5
100
AcDbSymbolTableRecord
100
AcDbLinetypeTableRecord
  2
ACAD_ISO11W100
 70
     0
  3
ISO double-dash dot __ __ . __ __ . __ __ . __ 
 72
    65
 73
     6
 40
33.0
 49
12.0
 74
     0
 49
-3.0
 74
     0
 49
12.0
 74
     0
 49
-3.0
 74
     0
 49
0.0
 74
     0
 49
-3.0
 74
     0
  0
LTYPE
  5
6F
330
5
100
AcDbSymbolTableRecord
100
AcDbLinetypeTableRecord
  2
ACAD_ISO12W100
 70
     0
  3
ISO dash double-dot __ . . __ . . __ . . __ . .
 72
    65
 73
     6
 40
21.0
 49
12.0
 74
     0
 49
-3.0
 74
     0
 49
0.0
 74
     0
 49
-3.0
 74
     0
 49
0.0
 74
     0
 49
-3.0
 74
     0
  0
LTYPE
  5
70
330
5
100
AcDbSymbolTableRecord
100
AcDbLinetypeTableRecord
  2
ACAD_ISO13W100
 70
     0
  3
ISO double-dash double-dot __ __ . . __ __ . . 
 72
    65
 73
     8
 40
36.0
 49
12.0
 74
     0
 49
-3.0
 74
     0
 49
12.0
 74
     0
 49
-3.0
 74
     0
 49
0.0
 74
     0
 49
-3.0
 74
     0
 49
0.0
 74
     0
 49
-3.0
 74
     0
  0
LTYPE
  5
71
330
5
100
AcDbSymbolTableRecord
100
AcDbLinetypeTableRecord
  2
ACAD_ISO14W100
 70
     0
  3
ISO dash triple-dot __ . . . __ . . . __ . . . 
 72
    65
 73
     8
 40
24.0
 49
12.0
 74
     0
 49
-3.0
 74
     0
 49
0.0
 74
     0
 49
-3.0
 74
     0
 49
0.0
 74
     0
 49
-3.0
 74
     0
 49
0.0
 74
     0
 49
-3.0
 74
     0
  0
LTYPE
  5
72
330
5
100
AcDbSymbolTableRecord
100
AcDbLinetypeTableRecord
  2
ACAD_ISO15W100
 70
     0
  3
ISO double-dash triple-dot __ __ . . . __ __ . 
 72
    65
 73
    10
 40
39.0
 49
12.0
 74
     0
 49
-3.0
 74
     0
 49
12.0
 74
     0
 49
-3.0
 74
     0
 49
0.0
 74
     0
 49
-3.0
 74
     0
 49
0.0
 74
     0
 49
-3.0
 74
     0
 49
0.0
 74
     0
 49
-3.0
 74
     0
  0
LTYPE
  5
75
330
5
100
AcDbSymbolTableRecord
100
AcDbLinetypeTableRecord
  2
FENCELINE1
 70
     0
  3
Fenceline circle ----0-----0----0-----0----0---
 72
    65
 73
     4
 40
36.83
 49
6.349999999999999
 74
     0
 49
-2.54
 74
     4
 75
   133
340
74
 46
2.54
 50
0.0
 44
-2.54
 45
0.0
 49
-2.54
 74
     0
 49
25.4
 74
     0
  0
LTYPE
  5
76
330
5
100
AcDbSymbolTableRecord
100
AcDbLinetypeTableRecord
  2
FENCELINE2
 70
     0
  3
Fenceline square ----[]-----[]----[]-----[]----
 72
    65
 73
     4
 40
36.83
 49
6.349999999999999
 74
     0
 49
-2.54
 74
     4
 75
   132
340
74
 46
2.54
 50
0.0
 44
-2.54
 45
0.0
 49
-2.54
 74
     0
 49
25.4
 74
     0
  0
LTYPE
  5
77
330
5
100
AcDbSymbolTableRecord
100
AcDbLinetypeTableRecord
  2
TRACKS
 70
     0
  3
Tracks -|-|-|-|-|-|-|-|-|-|-|-|-|-|-|-|-|-|-|-|
 72
    65
 73
     2
 40
7.62
 49
3.81
 74
     4
 75
   130
340
74
 46
6.349999999999999
 50
0.0
 44
0.0
 45
0.0
 49
3.81
 74
     0
  0
LTYPE
  5
78
330
5
100
AcDbSymbolTableRecord
100
AcDbLinetypeTableRecord
  2
BATTING
 70
     0
  3
Batting SSSSSSSSSSSSSSSSSSSSSSSSSSSSSSSSSSSSSSS
 72
    65
 73
     4
 40
10.16254
 49
0.00254
 74
     0
 49
-2.54
 74
     4
 75
   134
340
74
 46
2.54
 50
0.0
 44
-2.54
 45
0.0
 49
-5.08
 74
     4
 75
   134
340
74
 46
2.54
 50
180.0
 44
2.54
 45
0.0
 49
-2.54
 74
     0
  0
LTYPE
  5
79
330
5
100
AcDbSymbolTableRecord
100
AcDbLinetypeTableRecord
  2
HOT_WATER_SUPPLY
 70
     0
  3
Hot water supply ---- HW ---- HW ---- HW ----
 72
    65
 73
     3
 40
22.86
 49
12.7
 74
     0
 49
-5.08
 74
     2
 75
     0
340
26
 46
2.54
 50
0.0
 44
-2.54
 45
-1.27
  9
HW
 49
-5.08
 74
     0
  0
LTYPE
  5
7A
330
5
100
AcDbSymbolTableRecord
100
AcDbLinetypeTableRecord
  2
GAS_LINE
 70
     0
  3
Gas line ----GAS----GAS----GAS----GAS----GAS---
 72
    65
 73
     3
 40
24.13
 49
12.7
 74
     0
 49
-5.08
 74
     2
 75
     0
340
26
 46
2.54
 50
0.0
 44
-2.54
 45
-1.27
  9
GAS
 49
-6.349999999999999
 74
     0
  0
LTYPE
  5
7B
330
5
100
AcDbSymbolTableRecord
100
AcDbLinetypeTableRecord
  2
ZIGZAG
 70
     0
  3
Zig zag /\/\/\/\/\/\/\/\/\/\/\/\/\/\/\/\/\/\/\/
 72
    65
 73
     4
 40
20.32254
 49
0.00254
 74
     0
 49
-5.08
 74
     4
 75
   131
340
74
 46
5.08
 50
0.0
 44
-5.08
 45
0.0
 49
-10.16
 74
     4
 75
   131
340
74
 46
5.08
 50
180.0
 44
5.08
 45
0.0
 49
-5.08
 74
     0
  0
ENDTAB
  0
TABLE
  2
LAYER
  5
2
330
0
100
AcDbSymbolTable
 70
    26
  0
LAYER
  5
25
330
2
100
AcDbSymbolTableRecord
100
AcDbLayerTableRecord
  2
0
 70
     0
 62
     7
  6
Continuous
370
    -3
390
F
  0
LAYER
  5
85
330
2
100
AcDbSymbolTableRecord
100
AcDbLayerTableRecord
  2
Hatch (ISO)
 70
     0
 62
     7
  6
Continuous
370
    18
390
F
  0
LAYER
  5
88
330
2
100
AcDbSymbolTableRecord
100
AcDbLayerTableRecord
  2
LIST___3CO
 70
     0
 62
     2
  6
Continuous
370
    25
390
F
  0
LAYER
  5
8C
330
2
100
AcDbSymbolTableRecord
100
AcDbLayerTableRecord
  2
Sketch Geometry (ISO)
 70
     0
 62
     7
  6
Continuous
370
    18
390
F
  0
LAYER
  5
8D
330
2
100
AcDbSymbolTableRecord
100
AcDbLayerTableRecord
  2
Symbol (ISO)
 70
     0
 62
     7
  6
Continuous
370
    18
390
F
  0
LAYER
  5
90
330
2
100
AcDbSymbolTableRecord
100
AcDbLayerTableRecord
  2
Visible (ISO)
 70
     0
 62
     7
  6
Continuous
370
    35
390
F
  0
ENDTAB
  0
TABLE
  2
STYLE
  5
3
330
0
100
AcDbSymbolTable
 70
    56
  0
STYLE
  5
26
330
3
100
AcDbSymbolTableRecord
100
AcDbTextStyleTableRecord
  2
Standard
 70
     0
 40
0.0
 41
1.0
 50
0.0
 71
     0
 42
0.2
  3
ARIAL.TTF
  4

1001
ACAD
1000
Arial
1071
      256
  0
STYLE
  5
74
330
3
100
AcDbSymbolTableRecord
100
AcDbTextStyleTableRecord
  2

 70
     1
 40
0.0
 41
1.0
 50
0.0
 71
     0
 42
0.2
  3
ltypeshp.shx
  4

  0
STYLE
  5
95
330
3
100
AcDbSymbolTableRecord
100
AcDbTextStyleTableRecord
  2
ARIAL_53
 70
     0
 40
0.0
 41
1.0
 50
0.0
 71
     0
 42
0.2
  3
swiss.ttf
  4

1001
ACAD
1000
Swis721 BT
1071
      256
  0
STYLE
  5
96
330
3
100
AcDbSymbolTableRecord
100
AcDbTextStyleTableRecord
  2
ARIAL_55
 70
     0
 40
0.0
 41
1.0
 50
0.0
 71
     0
 42
0.2
  3
swiss.ttf
  4

1001
ACAD
1000
Swis721 BT
1071
      256
  0
STYLE
  5
97
330
3
100
AcDbSymbolTableRecord
100
AcDbTextStyleTableRecord
  2
ARIAL_56
 70
     0
 40
0.0
 41
1.0
 50
0.0
 71
     0
 42
0.2
  3
swiss.ttf
  4

1001
ACAD
1000
Swis721 BT
1071
      256
  0
STYLE
  5
98
330
3
100
AcDbSymbolTableRecord
100
AcDbTextStyleTableRecord
  2
ARIAL_57
 70
     0
 40
0.0
 41
1.0
 50
0.0
 71
     0
 42
0.2
  3
swiss.ttf
  4

1001
ACAD
1000
Swis721 BT
1071
      256
  0
STYLE
  5
99
330
3
100
AcDbSymbolTableRecord
100
AcDbTextStyleTableRecord
  2
ARIAL_58
 70
     0
 40
0.0
 41
1.0
 50
0.0
 71
     0
 42
0.2
  3
swiss.ttf
  4

1001
ACAD
1000
Swis721 BT
1071
      256
  0
STYLE
  5
9A
330
3
100
AcDbSymbolTableRecord
100
AcDbTextStyleTableRecord
  2
ARIAL_60
 70
     0
 40
0.0
 41
1.0
 50
0.0
 71
     0
 42
0.2
  3
swiss.ttf
  4

1001
ACAD
1000
Swis721 BT
1071
      256
  0
STYLE
  5
9B
330
3
100
AcDbSymbolTableRecord
100
AcDbTextStyleTableRecord
  2
ARIAL_63
 70
     0
 40
0.0
 41
1.0
 50
0.0
 71
     0
 42
0.2
  3
swiss.ttf
  4

1001
ACAD
1000
Swis721 BT
1071
      256
  0
STYLE
  5
9C
330
3
100
AcDbSymbolTableRecord
100
AcDbTextStyleTableRecord
  2
ARIAL_71
 70
     0
 40
0.0
 41
1.0
 50
0.0
 71
     0
 42
0.2
  3
swiss.ttf
  4

1001
ACAD
1000
Swis721 BT
1071
      256
  0
STYLE
  5
9D
330
3
100
AcDbSymbolTableRecord
100
AcDbTextStyleTableRecord
  2
ARIAL_75
 70
     0
 40
0.0
 41
1.0
 50
0.0
 71
     0
 42
0.2
  3
swiss.ttf
  4

1001
ACAD
1000
Swis721 BT
1071
      256
  0
STYLE
  5
9E
330
3
100
AcDbSymbolTableRecord
100
AcDbTextStyleTableRecord
  2
ARIAL_84
 70
     0
 40
0.0
 41
1.0
 50
0.0
 71
     0
 42
0.2
  3
swiss.ttf
  4

1001
ACAD
1000
Swis721 BT
1071
      256
  0
STYLE
  5
9F
330
3
100
AcDbSymbolTableRecord
100
AcDbTextStyleTableRecord
  2
ISO_63
 70
     0
 40
0.0
 41
1.0
 50
0.0
 71
     0
 42
0.2
  3
romans.shx
  4

  0
STYLE
  5
A0
330
3
100
AcDbSymbolTableRecord
100
AcDbTextStyleTableRecord
  2
ISO_82
 70
     0
 40
0.0
 41
1.0
 50
0.0
 71
     0
 42
0.2
  3
romans.shx
  4

  0
STYLE
  5
A1
330
3
100
AcDbSymbolTableRecord
100
AcDbTextStyleTableRecord
  2
Label Text (ANSI)
 70
     0
 40
0.0
 41
1.0
 50
0.0
 71
     0
 42
0.2
  3
TAHOMA.TTF
  4

1001
ACAD
1000
Tahoma
1071
      256
  0
STYLE
  5
A2
330
3
100
AcDbSymbolTableRecord
100
AcDbTextStyleTableRecord
  2
Label Text (DIN)
 70
     0
 40
0.0
 41
1.0
 50
0.0
 71
     0
 42
0.2
  3
isocpeur.ttf
  4

1001
ACAD
1000
ISOCPEUR
1071
      256
  0
STYLE
  5
A3
330
3
100
AcDbSymbolTableRecord
100
AcDbTextStyleTableRecord
  2
Label Text (ISO)
 70
     0
 40
0.0
 41
1.0
 50
0.0
 71
     0
 42
0.2
  3
TAHOMA.TTF
  4

1001
ACAD
1000
Tahoma
1071
      256
  0
STYLE
  5
A4
330
3
100
AcDbSymbolTableRecord
100
AcDbTextStyleTableRecord
  2
Label Text (JIS)
 70
     0
 40
0.0
 41
1.0
 50
0.0
 71
     0
 42
0.2
  3
TAHOMA.TTF
  4

1001
ACAD
1000
Tahoma
1071
      256
  0
STYLE
  5
A5
330
3
100
AcDbSymbolTableRecord
100
AcDbTextStyleTableRecord
  2
NORMAL_168
 70
     0
 40
0.0
 41
1.0
 50
0.0
 71
     0
 42
0.2
  3
simplex.shx
  4

  0
STYLE
  5
A6
330
3
100
AcDbSymbolTableRecord
100
AcDbTextStyleTableRecord
  2
Note Text (ANSI)
 70
     0
 40
0.0
 41
1.0
 50
0.0
 71
     0
 42
0.2
  3
TAHOMA.TTF
  4

1001
ACAD
1000
Tahoma
1071
      256
  0
STYLE
  5
A7
330
3
100
AcDbSymbolTableRecord
100
AcDbTextStyleTableRecord
  2
Note Text (DIN)
 70
     0
 40
0.0
 41
1.0
 50
0.0
 71
     0
 42
0.2
  3
isocpeur.ttf
  4

1001
ACAD
1000
ISOCPEUR
1071
      256
  0
STYLE
  5
A8
330
3
100
AcDbSymbolTableRecord
100
AcDbTextStyleTableRecord
  2
Note Text (ISO)
 70
     0
 40
0.0
 41
0.6999999880790711
 50
0.0
 71
     0
 42
0.2
  3
ARIAL.TTF
  4

1001
ACAD
1000
Arial
1071
      256
  0
STYLE
  5
A9
330
3
100
AcDbSymbolTableRecord
100
AcDbTextStyleTableRecord
  2
Note Text (JIS)
 70
     0
 40
0.0
 41
1.0
 50
0.0
 71
     0
 42
0.2
  3
TAHOMA.TTF
  4

1001
ACAD
1000
Tahoma
1071
      256
  0
STYLE
  5
AA
330
3
100
AcDbSymbolTableRecord
100
AcDbTextStyleTableRecord
  2
SCRIPTC_167
 70
     0
 40
0.0
 41
1.0
 50
0.0
 71
     0
 42
0.2
  3
scriptc.shx
  4

  0
STYLE
  5
AB
330
3
100
AcDbSymbolTableRecord
100
AcDbTextStyleTableRecord
  2
SCRIPTC_75
 70
     0
 40
0.0
 41
1.0
 50
0.0
 71
     0
 42
0.2
  3
scriptc.shx
  4

  0
STYLE
  5
AC
330
3
100
AcDbSymbolTableRecord
100
AcDbTextStyleTableRecord
  2
StandardAM_ISO
 70
     0
 40
0.0
 41
1.0
 50
0.0
 71
     0
 42
0.2
  3
monotxt.shx
  4

  0
STYLE
  5
AD
330
3
100
AcDbSymbolTableRecord
100
AcDbTextStyleTableRecord
  2
StandardAM_ISO$3
 70
     0
 40
0.0
 41
1.0
 50
0.0
 71
     0
 42
0.2
  3
monotxt.shx
  4

  0
STYLE
  5
AE
330
3
100
AcDbSymbolTableRecord
100
AcDbTextStyleTableRecord
  2
StandardAM_ISO$4
 70
     0
 40
0.0
 41
1.0
 50
0.0
 71
     0
 42
0.2
  3
monotxt.shx
  4

  0
STYLE
  5
AF
330
3
100
AcDbSymbolTableRecord
100
AcDbTextStyleTableRecord
  2
StandardAM_ISO$6
 70
     0
 40
0.0
 41
1.0
 50
0.0
 71
     0
 42
0.2
  3
monotxt.shx
  4

  0
STYLE
  5
B0
330
3
100
AcDbSymbolTableRecord
100
AcDbTextStyleTableRecord
  2
StandardAM_ISO$7
 70
     0
 40
0.0
 41
1.0
 50
0.0
 71
     0
 42
0.2
  3
monotxt.shx
  4

  0
STYLE
  5
B1
330
3
100
AcDbSymbolTableRecord
100
AcDbTextStyleTableRecord
  2
StandardAM_ISO$SF
 70
     0
 40
0.0
 41
1.0
 50
0.0
 71
     0
 42
0.2
  3
monotxt.shx
  4

  0
STYLE
  5
B2
330
3
100
AcDbSymbolTableRecord
100
AcDbTextStyleTableRecord
  2
StandardAM_ISO$SH
 70
     0
 40
0.0
 41
1.0
 50
0.0
 71
     0
 42
0.2
  3
monotxt.shx
  4

  0
STYLE
  5
B3
330
3
100
AcDbSymbolTableRecord
100
AcDbTextStyleTableRecord
  2
STYLE2_39
 70
     0
 40
0.0
 41
1.0
 50
0.0
 71
     0
 42
0.2
  3
TAHOMA.TTF
  4

1001
ACAD
1000
Tahoma
1071
      256
  0
STYLE
  5
B4
330
3
100
AcDbSymbolTableRecord
100
AcDbTextStyleTableRecord
  2
STYLE4_66
 70
     0
 40
0.0
 41
1.0
 50
0.0
 71
     0
 42
0.2
  3
ariblk.TTF
  4

1001
ACAD
1000
Arial Black
1071
      256
  0
STYLE
  5
B5
330
3
100
AcDbSymbolTableRecord
100
AcDbTextStyleTableRecord
  2
T50_43
 70
     0
 40
0.0
 41
0.6999999880790711
 50
0.0
 71
     0
 42
0.2
  3
romans.shx
  4

  0
STYLE
  5
B6
330
3
100
AcDbSymbolTableRecord
100
AcDbTextStyleTableRecord
  2
T50_59
 70
     0
 40
0.0
 41
1.0
 50
0.0
 71
     0
 42
0.2
  3
romans.shx
  4

  0
STYLE
  5
B7
330
3
100
AcDbSymbolTableRecord
100
AcDbTextStyleTableRecord
  2
Title_78
 70
     0
 40
0.0
 41
0.6999999880790711
 50
0.0
 71
     0
 42
0.2
  3
romant.shx
  4

  0
STYLE
  5
B8
330
3
100
AcDbSymbolTableRecord
100
AcDbTextStyleTableRecord
  2
WBA1_144
 70
     0
 40
0.0
 41
1.0
 50
0.0
 71
     0
 42
0.2
  3
romans.shx
  4

  0
STYLE
  5
B9
330
3
100
AcDbSymbolTableRecord
100
AcDbTextStyleTableRecord
  2
WBA1_147
 70
     0
 40
0.0
 41
1.0
 50
0.0
 71
     0
 42
0.2
  3
romans.shx
  4

  0
STYLE
  5
BA
330
3
100
AcDbSymbolTableRecord
100
AcDbTextStyleTableRecord
  2
WBA1_151
 70
     0
 40
0.0
 41
1.0
 50
0.0
 71
     0
 42
0.2
  3
romans.shx
  4

  0
STYLE
  5
BB
330
3
100
AcDbSymbolTableRecord
100
AcDbTextStyleTableRecord
  2
WBA1_152
 70
     0
 40
0.0
 41
0.6700000166893006
 50
0.0
 71
     0
 42
0.2
  3
romans.shx
  4

  0
STYLE
  5
BC
330
3
100
AcDbSymbolTableRecord
100
AcDbTextStyleTableRecord
  2
WBA1_155
 70
     0
 40
0.0
 41
1.0
 50
0.0
 71
     0
 42
0.2
  3
romans.shx
  4

  0
STYLE
  5
BD
330
3
100
AcDbSymbolTableRecord
100
AcDbTextStyleTableRecord
  2
WBA1_156
 70
     0
 40
0.0
 41
0.6700000166893006
 50
0.0
 71
     0
 42
0.2
  3
romans.shx
  4

  0
STYLE
  5
BE
330
3
100
AcDbSymbolTableRecord
100
AcDbTextStyleTableRecord
  2
WBA1_160
 70
     0
 40
0.0
 41
0.6700000166893006
 50
0.0
 71
     0
 42
0.2
  3
romans.shx
  4

  0
STYLE
  5
BF
330
3
100
AcDbSymbolTableRecord
100
AcDbTextStyleTableRecord
  2
WBA1_164
 70
     0
 40
0.0
 41
1.0
 50
0.0
 71
     0
 42
0.2
  3
romans.shx
  4

  0
STYLE
  5
C0
330
3
100
AcDbSymbolTableRecord
100
AcDbTextStyleTableRecord
  2
WBA1_52
 70
     0
 40
0.0
 41
0.6999999880790711
 50
0.0
 71
     0
 42
0.2
  3
romans.shx
  4

  0
STYLE
  5
C1
330
3
100
AcDbSymbolTableRecord
100
AcDbTextStyleTableRecord
  2
WBA1_55
 70
     0
 40
0.0
 41
0.6999999880790711
 50
0.0
 71
     0
 42
0.2
  3
romans.shx
  4

  0
STYLE
  5
C2
330
3
100
AcDbSymbolTableRecord
100
AcDbTextStyleTableRecord
  2
WBA1_59
 70
     0
 40
0.0
 41
0.6999999880790711
 50
0.0
 71
     0
 42
0.2
  3
romans.shx
  4

  0
STYLE
  5
C3
330
3
100
AcDbSymbolTableRecord
100
AcDbTextStyleTableRecord
  2
WBA1_60
 70
     0
 40
0.0
 41
0.6999999880790711
 50
0.0
 71
     0
 42
0.2
  3
romans.shx
  4

  0
STYLE
  5
C4
330
3
100
AcDbSymbolTableRecord
100
AcDbTextStyleTableRecord
  2
WBA1_63
 70
     0
 40
0.0
 41
0.6999999880790711
 50
0.0
 71
     0
 42
0.2
  3
romans.shx
  4

  0
STYLE
  5
C5
330
3
100
AcDbSymbolTableRecord
100
AcDbTextStyleTableRecord
  2
WBA1_64
 70
     0
 40
0.0
 41
0.6999999880790711
 50
0.0
 71
     0
 42
0.2
  3
romans.shx
  4

  0
STYLE
  5
C6
330
3
100
AcDbSymbolTableRecord
100
AcDbTextStyleTableRecord
  2
WBA1_67
 70
     0
 40
0.0
 41
0.6999999880790711
 50
0.0
 71
     0
 42
0.2
  3
romans.shx
  4

  0
STYLE
  5
C7
330
3
100
AcDbSymbolTableRecord
100
AcDbTextStyleTableRecord
  2
WBA1_71
 70
     0
 40
0.0
 41
0.6999999880790711
 50
0.0
 71
     0
 42
0.2
  3
romans.shx
  4

  0
STYLE
  5
C8
330
3
100
AcDbSymbolTableRecord
100
AcDbTextStyleTableRecord
  2
WBA1_72
 70
     0
 40
0.0
 41
1.0
 50
0.0
 71
     0
 42
0.2
  3
romans.shx
  4

  0
STYLE
  5
C9
330
3
100
AcDbSymbolTableRecord
100
AcDbTextStyleTableRecord
  2
WBA1ISO-25
 70
     0
 40
0.0
 41
0.6999999880790711
 50
0.0
 71
     0
 42
0.2
  3
romans.shx
  4

  0
STYLE
  5
112
330
3
100
AcDbSymbolTableRecord
100
AcDbTextStyleTableRecord
  2
Note Text (ISO)-RomanS
 70
     0
 40
0.0
 41
0.6999999880790711
 50
0.0
 71
     0
 42
0.2
  3
RomanS.shx
  4

  0
ENDTAB
  0
TABLE
  2
VIEW
  5
6
330
0
100
AcDbSymbolTable
 70
     0
  0
ENDTAB
  0
TABLE
  2
UCS
  5
7
330
0
100
AcDbSymbolTable
 70
     0
  0
ENDTAB
  0
TABLE
  2
APPID
  5
9
330
0
100
AcDbSymbolTable
 70
     1
  0
APPID
  5
27
330
9
100
AcDbSymbolTableRecord
100
AcDbRegAppTableRecord
  2
ACAD
 70
     0
  0
ENDTAB
  0
TABLE
  2
DIMSTYLE
  5
A
330
0
100
AcDbSymbolTable
 70
    30
100
AcDbDimStyleTable
 71
     0
  0
DIMSTYLE
105
3F
330
A
100
AcDbSymbolTableRecord
100
AcDbDimStyleTableRecord
  2
Standard
 70
     0
340
26
  0
DIMSTYLE
105
CA
330
A
100
AcDbSymbolTableRecord
100
AcDbDimStyleTableRecord
  2
AM_ISO
 70
     0
 41
2.5
 42
1.0
 43
10.0
 44
1.0
 45
0.00000001
 73
     0
 74
     0
 77
     1
 78
     8
 79
     2
140
3.5
143
0.03937
146
0.7099999700273786
147
1.5
176
   256
177
   256
178
     2
271
     2
272
     3
284
     8
340
AC
371
    -1
372
    -1
  0
DIMSTYLE
105
CB
330
A
100
AcDbSymbolTableRecord
100
AcDbDimStyleTableRecord
  2
AM_ISO$7
 70
     0
 41
2.5
 42
1.0
 43
10.0
 44
1.0
 45
0.00000001
 73
     0
 74
     0
 77
     1
 78
     8
 79
     2
140
5.0
143
0.03937
146
0.7099999904632569
147
1.5
176
   256
177
   256
178
     2
271
     2
272
     3
284
     8
340
B0
371
    -1
372
    -1
  0
DIMSTYLE
105
CC
330
A
100
AcDbSymbolTableRecord
100
AcDbDimStyleTableRecord
  2
AM_ISO$3
 70
     0
 41
2.5
 42
1.0
 43
10.0
 44
1.0
 45
0.00000001
 73
     0
 77
     1
 78
     8
 79
     2
140
3.5
143
0.03937
146
0.7099999700273786
147
1.5
176
   256
177
   256
178
     2
271
     2
272
     3
284
     8
340
AD
371
    -1
372
    -1
  0
DIMSTYLE
105
CD
330
A
100
AcDbSymbolTableRecord
100
AcDbDimStyleTableRecord
  2
AM_ISO$3$7
 70
     0
 41
2.5
 42
1.0
 43
10.0
 44
1.0
 45
0.00000001
 73
     0
 77
     1
 78
     8
 79
     2
140
3.5
143
0.03937
146
0.7099999700273786
147
1.5
176
   256
177
   256
178
     2
271
     2
272
     3
284
     8
340
AD
371
    -1
372
    -1
  0
DIMSTYLE
105
CE
330
A
100
AcDbSymbolTableRecord
100
AcDbDimStyleTableRecord
  2
AM_ISO$4
 70
     0
 41
2.5
 42
1.0
 43
10.0
 44
1.0
 45
0.00000001
 73
     0
 77
     1
 78
     8
 79
     2
140
3.5
143
0.03937
146
0.7099999700273786
147
1.5
176
   256
177
   256
178
     2
271
     2
272
     3
284
     8
340
AE
371
    -1
372
    -1
  0
DIMSTYLE
105
CF
330
A
100
AcDbSymbolTableRecord
100
AcDbDimStyleTableRecord
  2
AM_ISO$4$7
 70
     0
 41
2.5
 42
1.0
 43
10.0
 44
1.0
 45
0.00000001
 73
     0
 77
     1
 78
     8
 79
     2
140
3.5
143
0.03937
146
0.7099999700273786
147
1.5
176
   256
177
   256
178
     2
271
     2
272
     3
284
     8
340
AE
371
    -1
372
    -1
  0
DIMSTYLE
105
D0
330
A
100
AcDbSymbolTableRecord
100
AcDbDimStyleTableRecord
  2
AM_ISO$6
 70
     0
 41
2.5
 42
1.0
 43
10.0
 44
1.0
 45
0.00000001
 73
     0
 74
     0
 78
     8
 79
     2
140
3.5
143
0.03937
146
0.7099999700273786
147
1.5
176
   256
177
   256
178
     2
271
     2
272
     3
284
     8
340
AF
371
    -1
372
    -1
  0
DIMSTYLE
105
D1
330
A
100
AcDbSymbolTableRecord
100
AcDbDimStyleTableRecord
  2
AM_ISO$6$7
 70
     0
 41
2.5
 42
1.0
 43
10.0
 44
1.0
 45
0.00000001
 73
     0
 74
     0
 78
     8
 79
     2
140
3.5
143
0.03937
146
0.7099999700273786
147
1.5
176
   256
177
   256
178
     2
271
     2
272
     3
284
     8
340
AF
371
    -1
372
    -1
  0
DIMSTYLE
105
D2
330
A
100
AcDbSymbolTableRecord
100
AcDbDimStyleTableRecord
  2
AM_ISO$7$7
 70
     0
 41
2.5
 42
1.0
 43
10.0
 44
1.0
 45
0.00000001
 73
     0
 74
     0
 77
     1
 78
     8
 79
     2
140
5.0
143
0.03937
146
0.7099999904632569
147
1.5
176
   256
177
   256
178
     2
271
     2
272
     3
284
     8
340
B0
371
    -1
372
    -1
  0
DIMSTYLE
105
D3
330
A
100
AcDbSymbolTableRecord
100
AcDbDimStyleTableRecord
  2
AM_ISO$SF
 70
     0
 41
2.5
 42
1.0
 43
10.0
 44
1.0
 45
0.00000001
 73
     0
 74
     0
 75
     1
 76
     1
 77
     1
 78
     8
 79
     2
140
3.5
143
0.03937
146
0.7099999700273786
147
1.5
176
   256
177
   256
178
     2
271
     2
272
     3
284
     8
340
B1
371
    -1
372
    -1
  0
DIMSTYLE
105
D4
330
A
100
AcDbSymbolTableRecord
100
AcDbDimStyleTableRecord
  2
AM_ISO$SF$7
 70
     0
 41
2.5
 42
1.0
 43
10.0
 44
1.0
 45
0.00000001
 73
     0
 74
     0
 75
     1
 76
     1
 77
     1
 78
     8
 79
     2
140
3.5
143
0.03937
146
0.7099999700273786
147
1.5
176
   256
177
   256
178
     2
271
     2
272
     3
284
     8
340
B1
371
    -1
372
    -1
  0
DIMSTYLE
105
D5
330
A
100
AcDbSymbolTableRecord
100
AcDbDimStyleTableRecord
  2
AM_ISO$SH
 70
     0
 41
2.5
 42
1.0
 43
10.0
 44
1.0
 45
0.00000001
 73
     0
 74
     0
 75
     1
 76
     1
 77
     1
 78
     8
 79
     2
140
3.5
143
0.03937
146
0.7099999700273786
147
1.5
176
   256
177
   256
178
     2
271
     2
272
     3
284
     8
340
B2
371
    -1
372
    -1
  0
DIMSTYLE
105
D6
330
A
100
AcDbSymbolTableRecord
100
AcDbDimStyleTableRecord
  2
AM_ISO$SH$7
 70
     0
 41
2.5
 42
1.0
 43
10.0
 44
1.0
 45
0.00000001
 73
     0
 74
     0
 75
     1
 76
     1
 77
     1
 78
     8
 79
     2
140
3.5
143
0.03937
146
0.7099999700273786
147
1.5
176
   256
177
   256
178
     2
271
     2
272
     3
284
     8
340
B2
371
    -1
372
    -1
  0
DIMSTYLE
105
D7
330
A
100
AcDbSymbolTableRecord
100
AcDbDimStyleTableRecord
  2
Default - Method 1b (ISO)
 70
     0
 41
2.5
 42
0.0
 43
6.0
 44
3.174999999999999
 45
0.00000001
 46
10.0
 73
     0
 77
     1
 78
     8
 79
     2
140
2.5
143
0.03937
146
1.399999999999999
147
0.762
171
     3
172
     1
176
   256
177
   256
178
   256
179
     2
271
     2
272
     2
274
     3
278
    44
284
     8
286
     8
340
A8
371
    -1
372
    -1
  0
DIMSTYLE
105
D8
330
A
100
AcDbSymbolTableRecord
100
AcDbDimStyleTableRecord
  2
Default - Method 1b (ISO)$7
 70
     0
 41
2.5
 42
0.0
 43
6.0
 44
3.174999999999999
 45
0.00000001
 46
10.0
 73
     0
 77
     1
 78
     8
 79
     2
140
2.5
143
0.03937
146
1.399999999999999
147
0.762
171
     3
172
     1
176
   256
177
   256
178
   256
179
     2
271
     2
272
     2
274
     3
278
    44
284
     8
286
     8
340
A8
371
    -1
372
    -1
  0
DIMSTYLE
105
D9
330
A
100
AcDbSymbolTableRecord
100
AcDbDimStyleTableRecord
  2
Default - Method 2a (ISO)
 70
     0
 41
2.5
 42
0.0
 43
6.0
 44
3.174999999999999
 45
0.00000001
 46
10.0
 77
     1
 78
     8
 79
     2
140
2.5
143
0.03937
146
1.399999999999999
147
0.762
171
     3
172
     1
176
   256
177
   256
178
   256
179
     2
271
     2
272
     2
274
     3
278
    44
284
     8
286
     8
340
A8
371
    -1
372
    -1
  0
DIMSTYLE
105
DA
330
A
100
AcDbSymbolTableRecord
100
AcDbDimStyleTableRecord
  2
Default - Method 2a (ISO)$7
 70
     0
 41
2.5
 42
0.0
 43
6.0
 44
3.174999999999999
 45
0.00000001
 46
10.0
 77
     1
 78
     8
 79
     2
140
2.5
143
0.03937
146
1.399999999999999
147
0.762
171
     3
172
     1
176
   256
177
   256
178
   256
179
     2
271
     2
272
     2
274
     3
278
    44
284
     8
286
     8
340
A8
371
    -1
372
    -1
  0
DIMSTYLE
105
DB
330
A
100
AcDbSymbolTableRecord
100
AcDbDimStyleTableRecord
  2
Default - Method 2b (ISO)
 70
     0
 41
2.5
 42
0.0
 43
6.0
 44
3.174999999999999
 45
0.00000001
 46
10.0
 77
     1
 78
     8
 79
     2
140
2.5
143
0.03937
146
1.399999999999999
147
0.762
171
     3
172
     1
176
   256
177
   256
178
   256
179
     2
271
     2
272
     2
274
     3
278
    44
284
     8
286
     8
340
A8
371
    -1
372
    -1
  0
DIMSTYLE
105
DC
330
A
100
AcDbSymbolTableRecord
100
AcDbDimStyleTableRecord
  2
Default - Method 2b (ISO)$7
 70
     0
 41
2.5
 42
0.0
 43
6.0
 44
3.174999999999999
 45
0.00000001
 46
10.0
 77
     1
 78
     8
 79
     2
140
2.5
143
0.03937
146
1.399999999999999
147
0.762
171
     3
172
     1
176
   256
177
   256
178
   256
179
     2
271
     2
272
     2
274
     3
278
    44
284
     8
286
     8
340
A8
371
    -1
372
    -1
  0
DIMSTYLE
105
DD
330
A
100
AcDbSymbolTableRecord
100
AcDbDimStyleTableRecord
  2
Default - mm [in] (ISO)
 70
     0
  4
 in
 41
2.5
 42
0.0
 43
6.0
 44
3.174999999999999
 45
0.00000001
 46
10.0
 73
     0
 74
     0
 77
     1
 78
     8
 79
     2
140
2.5
143
0.03937
146
1.399999999999999
147
0.762
170
     1
171
     3
172
     1
176
   256
177
   256
178
   256
179
     3
271
     3
272
     2
274
     3
275
     1
278
    44
284
     8
285
     8
286
     8
340
A8
371
    -1
372
    -1
  0
DIMSTYLE
105
DE
330
A
100
AcDbSymbolTableRecord
100
AcDbDimStyleTableRecord
  2
Default - mm [in] (ISO)$7
 70
     0
  4
 in
 41
2.5
 42
0.0
 43
6.0
 44
3.174999999999999
 45
0.00000001
 46
10.0
 73
     0
 74
     0
 77
     1
 78
     8
 79
     2
140
2.5
143
0.03937
146
1.399999999999999
147
0.762
170
     1
171
     3
172
     1
176
   256
177
   256
178
   256
179
     3
271
     3
272
     2
274
     3
275
     1
278
    44
284
     8
285
     8
286
     8
340
A8
371
    -1
372
    -1
  0
DIMSTYLE
105
DF
330
A
100
AcDbSymbolTableRecord
100
AcDbDimStyleTableRecord
  2
Default (ISO)
 70
     0
 41
2.5
 42
1.0
 43
6.0
 44
2.0
 45
0.00000001
 46
10.0
 73
     0
 74
     0
 77
     1
140
2.5
143
0.03937
146
1.402080059051513
147
0.762
171
     3
172
     1
176
   256
177
   256
178
   256
179
     2
271
     0
272
     2
274
     3
340
A8
371
    -1
372
    -1
  0
DIMSTYLE
105
E0
330
A
100
AcDbSymbolTableRecord
100
AcDbDimStyleTableRecord
  2
Default (ISO)$7
 70
     0
 41
2.5
 42
1.0
 43
6.0
 44
2.0
 45
0.00000001
 46
10.0
 73
     0
 74
     0
 77
     1
140
2.5
143
0.03937
146
1.402080059051513
147
0.762
171
     3
172
     1
176
   256
177
   256
178
   256
179
     2
271
     0
272
     2
274
     3
340
A8
371
    -1
372
    -1
  0
DIMSTYLE
105
E1
330
A
100
AcDbSymbolTableRecord
100
AcDbDimStyleTableRecord
  2
ISO-25
 70
     0
 41
1.0
 42
0.0
 43
0.0
 44
0.0
 45
0.00000001
 73
     0
 74
     0
 77
     1
 78
     8
143
0.03937
146
0.0
147
0.0
171
     3
176
   256
177
   256
178
     3
271
     0
272
     0
274
     3
284
     8
340
C9
371
     9
372
     9
  0
DIMSTYLE
105
E2
330
A
100
AcDbSymbolTableRecord
100
AcDbDimStyleTableRecord
  2
ISO-25$7
 70
     0
 41
1.0
 42
0.0
 43
0.0
 44
0.0
 45
0.00000001
 73
     0
 74
     0
 77
     1
 78
     8
143
0.03937
146
0.0
147
0.0
171
     3
176
   256
177
   256
178
     3
271
     0
272
     0
274
     3
284
     8
340
C9
371
     9
372
     9
  0
DIMSTYLE
105
F1
330
A
100
AcDbSymbolTableRecord
100
AcDbDimStyleTableRecord
  2
Miscellaneous Object (ISO)
 70
     0
 41
2.5
 42
0.0
 43
6.0
 44
3.174999999999999
 45
0.00000001
 46
10.0
 73
     0
 74
     0
 77
     1
140
5.25
143
0.03937
146
0.6676571709769112
147
0.762
171
     3
172
     1
176
   256
177
   256
178
   256
179
     2
271
     2
272
     2
274
     3
278
    44
340
A3
341
E3
371
    -1
372
    -1
  0
DIMSTYLE
105
F2
330
A
100
AcDbSymbolTableRecord
100
AcDbDimStyleTableRecord
  2
Miscellaneous Object (ISO)$7
 70
     0
 41
5.0
 42
0.0
 43
6.0
 44
3.174999999999999
 45
0.00000001
 46
10.0
 73
     0
 74
     0
 77
     1
140
5.25
143
0.03937
146
0.6676571709769112
147
0.762
171
     3
172
     1
176
   256
177
   256
178
   256
179
     2
271
     2
272
     2
274
     3
278
    44
340
A3
341
E3
371
    25
372
    -1
  0
DIMSTYLE
105
F3
330
A
100
AcDbSymbolTableRecord
100
AcDbDimStyleTableRecord
  2
Alternate (ISO)
 70
     0
 41
2.5
340
26
342
F4
  0
DIMSTYLE
105
105
330
A
100
AcDbSymbolTableRecord
100
AcDbDimStyleTableRecord
  2
Datum (ISO)
 70
     0
 41
2.5
340
26
342
F4
  0
ENDTAB
  0
TABLE
  2
BLOCK_RECORD
  5
1
330
0
100
AcDbSymbolTable
 70
    25
  0
BLOCK_RECORD
  5
37
330
1
100
AcDbSymbolTableRecord
100
AcDbBlockTableRecord
  2
*Model_Space
340
3A
  0
BLOCK_RECORD
  5
33
330
1
100
AcDbSymbolTableRecord
100
AcDbBlockTableRecord
  2
*Paper_Space
340
36
  0
BLOCK_RECORD
  5
3B
330
1
100
AcDbSymbolTableRecord
100
AcDbBlockTableRecord
  2
*Paper_Space0
340
3E
  0
BLOCK_RECORD
  5
E3
330
1
100
AcDbSymbolTableRecord
100
AcDbBlockTableRecord
  2
Filled-1
340
0
  0
BLOCK_RECORD
  5
F4
330
1
100
AcDbSymbolTableRecord
100
AcDbBlockTableRecord
  2
_Closed
340
0
  0
BLOCK_RECORD
  5
FB
330
1
100
AcDbSymbolTableRecord
100
AcDbBlockTableRecord
  2
DatumFilled45
340
0
  0
BLOCK_RECORD
  5
106
330
1
100
AcDbSymbolTableRecord
100
AcDbBlockTableRecord
  2
SECT-BALL-D-L
340
0
  0
BLOCK_RECORD
  5
117
330
1
100
AcDbSymbolTableRecord
100
AcDbBlockTableRecord
  2
SECT-BALL-D-R
340
0
  0
BLOCK_RECORD
  5
125
330
1
100
AcDbSymbolTableRecord
100
AcDbBlockTableRecord
  2
SECT-BALL-L-D
340
0
  0
BLOCK_RECORD
  5
133
330
1
100
AcDbSymbolTableRecord
100
AcDbBlockTableRecord
  2
SECT-BALL-R-D
340
0
  0
BLOCK_RECORD
  5
141
330
1
100
AcDbSymbolTableRecord
100
AcDbBlockTableRecord
  2
SECT-BALL-L-U
340
0
  0
BLOCK_RECORD
  5
14F
330
1
100
AcDbSymbolTableRecord
100
AcDbBlockTableRecord
  2
SECT-BALL-R-U
340
0
  0
BLOCK_RECORD
  5
15D
330
1
100
AcDbSymbolTableRecord
100
AcDbBlockTableRecord
  2
SECT-BALL-U-L
340
0
  0
BLOCK_RECORD
  5
16B
330
1
100
AcDbSymbolTableRecord
100
AcDbBlockTableRecord
  2
SECT-BALL-U-R
340
0
  0
BLOCK_RECORD
  5
179
330
1
100
AcDbSymbolTableRecord
100
AcDbBlockTableRecord
  2
SECT-FLAG-L-D
340
0
  0
BLOCK_RECORD
  5
185
330
1
100
AcDbSymbolTableRecord
100
AcDbBlockTableRecord
  2
SECT-FLAG-R-D
340
0
  0
BLOCK_RECORD
  5
191
330
1
100
AcDbSymbolTableRecord
100
AcDbBlockTableRecord
  2
SECT-FLAG-L-U
340
0
  0
BLOCK_RECORD
  5
19D
330
1
100
AcDbSymbolTableRecord
100
AcDbBlockTableRecord
  2
SECT-FLAG-R-U
340
0
  0
BLOCK_RECORD
  5
1A9
330
1
100
AcDbSymbolTableRecord
100
AcDbBlockTableRecord
  2
D___Detailing Blocks_Grid Balloon-48.dwg
340
0
  0
BLOCK_RECORD
  5
1AF
330
1
100
AcDbSymbolTableRecord
100
AcDbBlockTableRecord
  2
FACE LIFT
340
0
  0
BLOCK_RECORD
  5
1B2
330
1
100
AcDbSymbolTableRecord
100
AcDbBlockTableRecord
  2
PROP PT.
340
0
  0
BLOCK_RECORD
  5
1C4
330
1
100
AcDbSymbolTableRecord
100
AcDbBlockTableRecord
  2
FERRULE
340
0
  0
BLOCK_RECORD
  5
1CC
330
1
100
AcDbSymbolTableRecord
100
AcDbBlockTableRecord
  2
A3
340
0
  0
BLOCK_RECORD
  5
1D1
330
1
100
AcDbSymbolTableRecord
100
AcDbBlockTableRecord
  2
A1
340
0
  0
BLOCK_RECORD
  5
1D5
330
1
100
AcDbSymbolTableRecord
100
AcDbBlockTableRecord
  2
A2
340
0
102
{BLKREFS
331
1EE
102
}
  0
BLOCK_RECORD
  5
1D9
330
1
100
AcDbSymbolTableRecord
100
AcDbBlockTableRecord
  2
A4
340
0
  0
BLOCK_RECORD
  5
1DD
330
1
100
AcDbSymbolTableRecord
100
AcDbBlockTableRecord
  2
A0
340
0
  0
ENDTAB
  0
ENDSEC
  0
SECTION
  2
BLOCKS
  0
BLOCK
  5
38
330
37
100
AcDbEntity
  8
0
100
AcDbBlockBegin
  2
*Model_Space
 70
     0
 10
0.0
 20
0.0
 30
0.0
  3
*Model_Space
  1

  0
ENDBLK
  5
39
330
37
100
AcDbEntity
  8
0
100
AcDbBlockEnd
  0
BLOCK
  5
34
330
33
100
AcDbEntity
 67
     1
  8
0
100
AcDbBlockBegin
  2
*Paper_Space
 70
     0
 10
0.0
 20
0.0
 30
0.0
  3
*Paper_Space
  1

  0
ENDBLK
  5
35
330
33
100
AcDbEntity
 67
     1
  8
0
100
AcDbBlockEnd
  0
BLOCK
  5
3C
330
3B
100
AcDbEntity
 67
     1
  8
0
100
AcDbBlockBegin
  2
*Paper_Space0
 70
     0
 10
0.0
 20
0.0
 30
0.0
  3
*Paper_Space0
  1

  0
ENDBLK
  5
3D
330
3B
100
AcDbEntity
 67
     1
  8
0
100
AcDbBlockEnd
  0
BLOCK
  5
E4
330
E3
100
AcDbEntity
  8
0
100
AcDbBlockBegin
  2
Filled-1
 70
     0
 10
0.0
 20
0.0
 30
0.0
  3
Filled-1
  1

  0
LINE
  5
E6
330
E3
100
AcDbEntity
  8
0
 62
     0
100
AcDbLine
 10
-1.0
 20
0.0
 30
0.0
 11
0.0
 21
0.0
 31
0.0
  0
POLYLINE
  5
E7
330
E3
100
AcDbEntity
  8
0
 62
     0
100
AcDb2dPolyline
 66
     1
 10
0.0
 20
0.0
 30
0.0
 70
   128
  0
VERTEX
  5
E8
330
E7
100
AcDbEntity
  8
0
 62
     0
100
AcDbVertex
100
AcDb2dVertex
 10
-1.0
 20
-0.1
 30
0.0
  0
VERTEX
  5
E9
330
E7
100
AcDbEntity
  8
0
 62
     0
100
AcDbVertex
100
AcDb2dVertex
 10
0.0
 20
0.0
 30
0.0
  0
VERTEX
  5
EB
330
E7
100
AcDbEntity
  8
0
 62
     0
100
AcDbVertex
100
AcDb2dVertex
 10
-1.0
 20
0.1
 30
0.0
  0
VERTEX
  5
EC
330
E7
100
AcDbEntity
  8
0
 62
     0
100
AcDbVertex
100
AcDb2dVertex
 10
-1.0
 20
-0.1
 30
0.0
  0
SEQEND
  5
EA
330
E7
100
AcDbEntity
  8
0
 62
     0
  0
SOLID
  5
ED
330
E3
100
AcDbEntity
  8
0
 62
     0
100
AcDbTrace
 10
-1.0
 20
-0.1
 30
0.0
 11
0.0
 21
0.0
 31
0.0
 12
-1.0
 22
0.1
 32
0.0
 13
-1.0
 23
-0.1
 33
0.0
  0
LINE
  5
EE
330
E3
100
AcDbEntity
  8
0
 62
     0
100
AcDbLine
 10
-1.0
 20
-0.1
 30
0.0
 11
0.0
 21
0.0
 31
0.0
  0
LINE
  5
EF
330
E3
100
AcDbEntity
  8
0
 62
     0
100
AcDbLine
 10
0.0
 20
0.0
 30
0.0
 11
-1.0
 21
0.1
 31
0.0
  0
LINE
  5
F0
330
E3
100
AcDbEntity
  8
0
 62
     0
100
AcDbLine
 10
-1.0
 20
0.1
 30
0.0
 11
-1.0
 21
-0.1
 31
0.0
  0
ENDBLK
  5
E5
330
E3
100
AcDbEntity
  8
0
100
AcDbBlockEnd
  0
BLOCK
  5
F9
330
F4
100
AcDbEntity
  8
0
100
AcDbBlockBegin
  2
_Closed
 70
     0
 10
0.0
 20
0.0
 30
0.0
  3
_Closed
  1

  0
LINE
  5
F5
330
F4
100
AcDbEntity
  8
0
  6
ByBlock
 62
     0
370
    -2
100
AcDbLine
 10
-1.0
 20
0.1666666666666666
 30
0.0
 11
0.0
 21
0.0
 31
0.0
  0
LINE
  5
F6
330
F4
100
AcDbEntity
  8
0
  6
ByBlock
 62
     0
370
    -2
100
AcDbLine
 10
0.0
 20
0.0
 30
0.0
 11
-1.0
 21
-0.1666666666666666
 31
0.0
  0
LINE
  5
F7
330
F4
100
AcDbEntity
  8
0
  6
ByBlock
 62
     0
370
    -2
100
AcDbLine
 10
-1.0
 20
0.1666666666666666
 30
0.0
 11
-1.0
 21
-0.1666666666666666
 31
0.0
  0
LINE
  5
F8
330
F4
100
AcDbEntity
  8
0
  6
ByBlock
 62
     0
370
    -2
100
AcDbLine
 10
0.0
 20
0.0
 30
0.0
 11
-1.0
 21
0.0
 31
0.0
  0
ENDBLK
  5
FA
330
F4
100
AcDbEntity
  8
0
100
AcDbBlockEnd
  0
BLOCK
  5
FC
330
FB
100
AcDbEntity
  8
0
100
AcDbBlockBegin
  2
DatumFilled45
 70
     0
 10
0.0
 20
0.0
 30
0.0
  3
DatumFilled45
  1

  0
POLYLINE
  5
FE
330
FB
100
AcDbEntity
  8
0
 62
     0
100
AcDb2dPolyline
 66
     1
 10
0.0
 20
0.0
 30
0.0
 70
   128
  0
VERTEX
  5
FF
330
FE
100
AcDbEntity
  8
0
 62
     0
100
AcDbVertex
100
AcDb2dVertex
 10
0.0
 20
1.0
 30
0.0
  0
VERTEX
  5
100
330
FE
100
AcDbEntity
  8
0
 62
     0
100
AcDbVertex
100
AcDb2dVertex
 10
0.0
 20
-1.0
 30
0.0
  0
VERTEX
  5
102
330
FE
100
AcDbEntity
  8
0
 62
     0
100
AcDbVertex
100
AcDb2dVertex
 10
-1.0
 20
0.0
 30
0.0
  0
VERTEX
  5
103
330
FE
100
AcDbEntity
  8
0
 62
     0
100
AcDbVertex
100
AcDb2dVertex
 10
0.0
 20
1.0
 30
0.0
  0
SEQEND
  5
101
330
FE
100
AcDbEntity
  8
0
 62
     0
  0
SOLID
  5
104
330
FB
100
AcDbEntity
  8
0
 62
     0
100
AcDbTrace
 10
0.0
 20
1.0
 30
0.0
 11
0.0
 21
-1.0
 31
0.0
 12
-1.0
 22
0.0
 32
0.0
 13
0.0
 23
1.0
 33
0.0
  0
ENDBLK
  5
FD
330
FB
100
AcDbEntity
  8
0
100
AcDbBlockEnd
  0
BLOCK
  5
107
330
106
100
AcDbEntity
  8
0
100
AcDbBlockBegin
  2
SECT-BALL-D-L
 70
     2
 10
0.0
 20
0.0
 30
0.0
  3
SECT-BALL-D-L
  1

  0
ARC
  5
109
102
{ACAD_REACTORS
330
10C
102
}
330
106
100
AcDbEntity
  8
0
100
AcDbCircle
 10
1.014823227814076
 20
-3.099999999999987
 30
0.0
 40
4.9
100
AcDbArc
 50
134.9999999999996
 51
224.9999999999996
  0
LINE
  5
10A
102
{ACAD_REACTORS
330
10C
102
}
330
106
100
AcDbEntity
  8
0
100
AcDbLine
 10
-5.914823227814078
 20
-3.099999999999987
 30
0.0
 11
-2.450000000000045
 21
-6.564823227814073
 31
0.0
  0
LINE
  5
10B
102
{ACAD_REACTORS
330
10C
102
}
330
106
100
AcDbEntity
  8
0
100
AcDbLine
 10
-2.449999999999956
 20
0.3648232278140995
 30
0.0
 11
-5.914823227814078
 21
-3.099999999999987
 31
0.0
  0
HATCH
  5
10C
330
106
100
AcDbEntity
  8
Hatch (ISO)
 62
     7
100
AcDbHatch
 10
0.0
 20
0.0
 30
0.0
210
0.0
220
0.0
230
1.0
  2
SOLID
 70
     1
 71
     1
 91
        1
 92
        1
 93
        3
 72
     2
 10
1.014823227814076
 20
-3.099999999999987
 40
4.9
 50
134.9999999999996
 51
224.9999999999996
 73
     1
 72
     1
 10
-2.450000000000045
 20
-6.564823227814073
 11
-5.914823227814078
 21
-3.099999999999987
 72
     1
 10
-5.914823227814078
 20
-3.099999999999987
 11
-2.449999999999956
 21
0.3648232278140995
 97
        3
330
109
330
10A
330
10B
 75
     0
 76
     1
 98
        1
 10
0.0
 20
0.0
  0
CIRCLE
  5
10D
330
106
100
AcDbEntity
  8
Sketch Geometry (ISO)
100
AcDbCircle
 10
1.014823227814076
 20
-3.099999999999987
 30
0.0
 40
4.9
  0
LINE
  5
10E
330
106
100
AcDbEntity
  8
Sketch Geometry (ISO)
100
AcDbLine
 10
-3.885176772185925
 20
-3.099999999999951
 30
0.0
 11
5.914823227814078
 21
-3.099999999999951
 31
0.0
  0
LINE
  5
10F
330
106
100
AcDbEntity
  8
Sketch Geometry (ISO)
100
AcDbLine
 10
-2.449999999999956
 20
0.3648232278140995
 30
0.0
 11
-5.914823227814078
 21
-3.099999999999987
 31
0.0
  0
LINE
  5
110
330
106
100
AcDbEntity
  8
Sketch Geometry (ISO)
100
AcDbLine
 10
-5.914823227814078
 20
-3.099999999999987
 30
0.0
 11
-2.450000000000045
 21
-6.564823227814073
 31
0.0
  0
LINE
  5
111
330
106
100
AcDbEntity
  8
Sketch Geometry (ISO)
100
AcDbLine
 10
1.014823227814076
 20
1.799999999999997
 30
0.0
 11
1.014823227814076
 21
8.000000000000007
 31
0.0
  0
ATTDEF
  5
113
330
106
100
AcDbEntity
  8
Symbol (ISO)
100
AcDbText
 10
0.1398232427152378
 20
-1.899999999999977
 30
0.0
 40
2.5
  1
 
 41
0.6999999880790711
  7
Note Text (ISO)-RomanS
 72
     1
 11
1.014823227814076
 21
-0.6499999999999773
 31
0.0
100
AcDbAttributeDefinition
  3
SP
  2
SP
 70
     0
 74
     2
  0
ATTDEF
  5
116
330
106
100
AcDbEntity
  8
Symbol (ISO)
100
AcDbText
 10
0.1398232427152378
 20
-6.799999999999997
 30
0.0
 40
2.5
  1
 
 41
0.6999999880790711
  7
Note Text (ISO)-RomanS
 72
     1
 11
1.014823227814076
 21
-5.549999999999997
 31
0.0
100
AcDbAttributeDefinition
  3
DT
  2
DT
 70
     0
 74
     2
  0
ENDBLK
  5
108
330
106
100
AcDbEntity
  8
0
100
AcDbBlockEnd
  0
BLOCK
  5
118
330
117
100
AcDbEntity
  8
0
100
AcDbBlockBegin
  2
SECT-BALL-D-R
 70
     2
 10
0.0
 20
0.0
 30
0.0
  3
SECT-BALL-D-R
  1

  0
ARC
  5
11A
102
{ACAD_REACTORS
330
11D
102
}
330
117
100
AcDbEntity
  8
0
100
AcDbCircle
 10
-1.014823227814112
 20
-3.100000000000022
 30
0.0
 40
4.900000000000002
100
AcDbArc
 50
315.0
 51
45.00000000000031
  0
LINE
  5
11B
102
{ACAD_REACTORS
330
11D
102
}
330
117
100
AcDbEntity
  8
0
100
AcDbLine
 10
5.914823227814061
 20
-3.100000000000022
 30
0.0
 11
2.449999999999974
 21
0.3648232278140995
 31
0.0
  0
LINE
  5
11C
102
{ACAD_REACTORS
330
11D
102
}
330
117
100
AcDbEntity
  8
0
100
AcDbLine
 10
2.449999999999974
 20
-6.564823227814109
 30
0.0
 11
5.914823227814061
 21
-3.100000000000022
 31
0.0
  0
HATCH
  5
11D
330
117
100
AcDbEntity
  8
Hatch (ISO)
100
AcDbHatch
 10
0.0
 20
0.0
 30
0.0
210
0.0
220
0.0
230
1.0
  2
SOLID
 70
     1
 71
     1
 91
        1
 92
        1
 93
        3
 72
     2
 10
-1.014823227814112
 20
-3.100000000000022
 40
4.900000000000002
 50
315.0
 51
405.0000000000002
 73
     1
 72
     1
 10
2.449999999999974
 20
0.3648232278140995
 11
5.914823227814061
 21
-3.100000000000022
 72
     1
 10
5.914823227814061
 20
-3.100000000000022
 11
2.449999999999974
 21
-6.564823227814109
 97
        3
330
11A
330
11B
330
11C
 75
     0
 76
     1
 98
        1
 10
0.0
 20
0.0
  0
CIRCLE
  5
11E
330
117
100
AcDbEntity
  8
Sketch Geometry (ISO)
100
AcDbCircle
 10
-1.014823227814112
 20
-3.100000000000022
 30
0.0
 40
4.900000000000002
  0
LINE
  5
11F
330
117
100
AcDbEntity
  8
Sketch Geometry (ISO)
100
AcDbLine
 10
-5.914823227814096
 20
-3.100000000000022
 30
0.0
 11
3.885176772185872
 21
-3.099999999999987
 31
0.0
  0
LINE
  5
120
330
117
100
AcDbEntity
  8
Sketch Geometry (ISO)
100
AcDbLine
 10
2.449999999999974
 20
0.3648232278140995
 30
0.0
 11
5.914823227814061
 21
-3.100000000000022
 31
0.0
  0
LINE
  5
121
330
117
100
AcDbEntity
  8
Sketch Geometry (ISO)
100
AcDbLine
 10
5.914823227814061
 20
-3.100000000000022
 30
0.0
 11
2.449999999999974
 21
-6.564823227814109
 31
0.0
  0
LINE
  5
122
330
117
100
AcDbEntity
  8
Sketch Geometry (ISO)
100
AcDbLine
 10
-1.014823227814112
 20
1.799999999999997
 30
0.0
 11
-1.014823227814147
 21
8.000000000000007
 31
0.0
  0
ATTDEF
  5
123
330
117
100
AcDbEntity
  8
Symbol (ISO)
100
AcDbText
 10
-1.889823212912951
 20
-1.900000000000012
 30
0.0
 40
2.5
  1
 
 41
0.6999999880790711
  7
Note Text (ISO)-RomanS
 72
     1
 11
-1.014823227814112
 21
-0.6500000000000128
 31
0.0
100
AcDbAttributeDefinition
  3
SP
  2
SP
 70
     0
 74
     2
  0
ATTDEF
  5
124
330
117
100
AcDbEntity
  8
Symbol (ISO)
100
AcDbText
 10
-1.889823212912951
 20
-6.800000000000032
 30
0.0
 40
2.5
  1
 
 41
0.6999999880790711
  7
Note Text (ISO)-RomanS
 72
     1
 11
-1.014823227814112
 21
-5.550000000000032
 31
0.0
100
AcDbAttributeDefinition
  3
DT
  2
DT
 70
     0
 74
     2
  0
ENDBLK
  5
119
330
117
100
AcDbEntity
  8
0
100
AcDbBlockEnd
  0
BLOCK
  5
126
330
125
100
AcDbEntity
  8
0
100
AcDbBlockBegin
  2
SECT-BALL-L-D
 70
     2
 10
0.0
 20
0.0
 30
0.0
  3
SECT-BALL-L-D
  1

  0
LINE
  5
128
102
{ACAD_REACTORS
330
12B
102
}
330
125
100
AcDbEntity
  8
0
100
AcDbLine
 10
-6.564823227814073
 20
-2.450000000000027
 30
0.0
 11
-3.099999999999987
 21
-5.914823227814096
 31
0.0
  0
ARC
  5
129
102
{ACAD_REACTORS
330
12B
102
}
330
125
100
AcDbEntity
  8
0
100
AcDbCircle
 10
-3.099999999999987
 20
1.014823227814076
 30
0.0
 40
4.900000000000002
100
AcDbArc
 50
225.0000000000001
 51
315.0
  0
LINE
  5
12A
102
{ACAD_REACTORS
330
12B
102
}
330
125
100
AcDbEntity
  8
0
100
AcDbLine
 10
-3.099999999999987
 20
-5.914823227814096
 30
0.0
 11
0.3648232278140995
 21
-2.450000000000009
 31
0.0
  0
HATCH
  5
12B
330
125
100
AcDbEntity
  8
Hatch (ISO)
100
AcDbHatch
 10
0.0
 20
0.0
 30
0.0
210
0.0
220
0.0
230
1.0
  2
SOLID
 70
     1
 71
     1
 91
        1
 92
        1
 93
        3
 72
     1
 10
-6.564823227814073
 20
-2.450000000000027
 11
-3.099999999999987
 21
-5.914823227814096
 72
     1
 10
-3.099999999999987
 20
-5.914823227814096
 11
0.3648232278140995
 21
-2.450000000000009
 72
     2
 10
-3.099999999999987
 20
1.014823227814076
 40
4.900000000000002
 50
45.0
 51
134.9999999999998
 73
     0
 97
        3
330
128
330
12A
330
129
 75
     0
 76
     1
 98
        1
 10
0.0
 20
0.0
  0
CIRCLE
  5
12C
330
125
100
AcDbEntity
  8
Sketch Geometry (ISO)
100
AcDbCircle
 10
-3.099999999999987
 20
1.014823227814076
 30
0.0
 40
4.900000000000002
  0
LINE
  5
12D
330
125
100
AcDbEntity
  8
Sketch Geometry (ISO)
100
AcDbLine
 10
-6.564823227814073
 20
-2.450000000000027
 30
0.0
 11
-3.099999999999987
 21
-5.914823227814096
 31
0.0
  0
LINE
  5
12E
330
125
100
AcDbEntity
  8
Sketch Geometry (ISO)
100
AcDbLine
 10
-3.099999999999987
 20
-5.914823227814096
 30
0.0
 11
0.3648232278140995
 21
-2.450000000000009
 31
0.0
  0
LINE
  5
12F
330
125
100
AcDbEntity
  8
Sketch Geometry (ISO)
100
AcDbLine
 10
-7.999999999999989
 20
1.014823227814076
 30
0.0
 11
1.800000000000014
 21
1.014823227814076
 31
0.0
  0
LINE
  5
130
330
125
100
AcDbEntity
  8
Sketch Geometry (ISO)
100
AcDbLine
 10
1.800000000000014
 20
1.014823227814076
 30
0.0
 11
8.000000000000007
 21
1.014823227814076
 31
0.0
  0
ATTDEF
  5
131
330
125
100
AcDbEntity
  8
Symbol (ISO)
100
AcDbText
 10
-3.974999985098826
 20
2.214823227814086
 30
0.0
 40
2.5
  1
 
 41
0.6999999880790711
  7
Note Text (ISO)-RomanS
 72
     1
 11
-3.099999999999987
 21
3.464823227814086
 31
0.0
100
AcDbAttributeDefinition
  3
SP
  2
SP
 70
     0
 74
     2
  0
ATTDEF
  5
132
330
125
100
AcDbEntity
  8
Symbol (ISO)
100
AcDbText
 10
-3.974999985098826
 20
-2.685176772185933
 30
0.0
 40
2.5
  1
 
 41
0.6999999880790711
  7
Note Text (ISO)-RomanS
 72
     1
 11
-3.099999999999987
 21
-1.435176772185933
 31
0.0
100
AcDbAttributeDefinition
  3
DT
  2
DT
 70
     0
 74
     2
  0
ENDBLK
  5
127
330
125
100
AcDbEntity
  8
0
100
AcDbBlockEnd
  0
BLOCK
  5
134
330
133
100
AcDbEntity
  8
0
100
AcDbBlockBegin
  2
SECT-BALL-R-D
 70
     2
 10
0.0
 20
0.0
 30
0.0
  3
SECT-BALL-R-D
  1

  0
LINE
  5
136
102
{ACAD_REACTORS
330
139
102
}
330
133
100
AcDbEntity
  8
0
100
AcDbLine
 10
-0.3648232278140995
 20
-2.450000000000027
 30
0.0
 11
3.099999999999987
 21
-5.914823227814096
 31
0.0
  0
ARC
  5
137
102
{ACAD_REACTORS
330
139
102
}
330
133
100
AcDbEntity
  8
0
100
AcDbCircle
 10
3.099999999999987
 20
1.014823227814076
 30
0.0
 40
4.900000000000002
100
AcDbArc
 50
225.0000000000001
 51
315.0
  0
LINE
  5
138
102
{ACAD_REACTORS
330
139
102
}
330
133
100
AcDbEntity
  8
0
100
AcDbLine
 10
3.099999999999987
 20
-5.914823227814096
 30
0.0
 11
6.564823227814073
 21
-2.450000000000009
 31
0.0
  0
HATCH
  5
139
330
133
100
AcDbEntity
  8
Hatch (ISO)
100
AcDbHatch
 10
0.0
 20
0.0
 30
0.0
210
0.0
220
0.0
230
1.0
  2
SOLID
 70
     1
 71
     1
 91
        1
 92
        1
 93
        3
 72
     1
 10
-0.3648232278140995
 20
-2.450000000000027
 11
3.099999999999987
 21
-5.914823227814096
 72
     1
 10
3.099999999999987
 20
-5.914823227814096
 11
6.564823227814073
 21
-2.450000000000009
 72
     2
 10
3.099999999999987
 20
1.014823227814076
 40
4.900000000000002
 50
45.0
 51
134.9999999999998
 73
     0
 97
        3
330
136
330
138
330
137
 75
     0
 76
     1
 98
        1
 10
0.0
 20
0.0
  0
CIRCLE
  5
13A
330
133
100
AcDbEntity
  8
Sketch Geometry (ISO)
100
AcDbCircle
 10
3.099999999999987
 20
1.014823227814076
 30
0.0
 40
4.900000000000002
  0
LINE
  5
13B
330
133
100
AcDbEntity
  8
Sketch Geometry (ISO)
100
AcDbLine
 10
-0.3648232278140995
 20
-2.450000000000027
 30
0.0
 11
3.099999999999987
 21
-5.914823227814096
 31
0.0
  0
LINE
  5
13C
330
133
100
AcDbEntity
  8
Sketch Geometry (ISO)
100
AcDbLine
 10
3.099999999999987
 20
-5.914823227814096
 30
0.0
 11
6.564823227814073
 21
-2.450000000000009
 31
0.0
  0
LINE
  5
13D
330
133
100
AcDbEntity
  8
Sketch Geometry (ISO)
100
AcDbLine
 10
-1.800000000000014
 20
1.014823227814076
 30
0.0
 11
7.999999999999989
 21
1.014823227814076
 31
0.0
  0
LINE
  5
13E
330
133
100
AcDbEntity
  8
Sketch Geometry (ISO)
100
AcDbLine
 10
-1.800000000000014
 20
1.014823227814076
 30
0.0
 11
-8.000000000000007
 21
1.014823227814076
 31
0.0
  0
ATTDEF
  5
13F
330
133
100
AcDbEntity
  8
Symbol (ISO)
100
AcDbText
 10
2.225000014901148
 20
2.214823227814086
 30
0.0
 40
2.5
  1
 
 41
0.6999999880790711
  7
Note Text (ISO)-RomanS
 72
     1
 11
3.099999999999987
 21
3.464823227814086
 31
0.0
100
AcDbAttributeDefinition
  3
SP
  2
SP
 70
     0
 74
     2
  0
ATTDEF
  5
140
330
133
100
AcDbEntity
  8
Symbol (ISO)
100
AcDbText
 10
2.225000014901148
 20
-2.685176772185933
 30
0.0
 40
2.5
  1
 
 41
0.6999999880790711
  7
Note Text (ISO)-RomanS
 72
     1
 11
3.099999999999987
 21
-1.435176772185933
 31
0.0
100
AcDbAttributeDefinition
  3
DT
  2
DT
 70
     0
 74
     2
  0
ENDBLK
  5
135
330
133
100
AcDbEntity
  8
0
100
AcDbBlockEnd
  0
BLOCK
  5
142
330
141
100
AcDbEntity
  8
0
100
AcDbBlockBegin
  2
SECT-BALL-L-U
 70
     2
 10
0.0
 20
0.0
 30
0.0
  3
SECT-BALL-L-U
  1

  0
ARC
  5
144
102
{ACAD_REACTORS
330
147
102
}
330
141
100
AcDbEntity
  8
0
100
AcDbCircle
 10
-3.099999999999987
 20
-1.014823227814076
 30
0.0
 40
4.900000000000002
100
AcDbArc
 50
45.00000000000001
 51
135.0
  0
LINE
  5
145
102
{ACAD_REACTORS
330
147
102
}
330
141
100
AcDbEntity
  8
0
100
AcDbLine
 10
-3.099999999999987
 20
5.914823227814096
 30
0.0
 11
-6.564823227814073
 21
2.450000000000009
 31
0.0
  0
LINE
  5
146
102
{ACAD_REACTORS
330
147
102
}
330
141
100
AcDbEntity
  8
0
100
AcDbLine
 10
0.3648232278140995
 20
2.450000000000009
 30
0.0
 11
-3.099999999999987
 21
5.914823227814096
 31
0.0
  0
HATCH
  5
147
330
141
100
AcDbEntity
  8
Hatch (ISO)
100
AcDbHatch
 10
0.0
 20
0.0
 30
0.0
210
0.0
220
0.0
230
1.0
  2
SOLID
 70
     1
 71
     1
 91
        1
 92
        1
 93
        3
 72
     2
 10
-3.099999999999987
 20
-1.014823227814076
 40
4.900000000000002
 50
45.00000000000001
 51
135.0
 73
     1
 72
     1
 10
-6.564823227814073
 20
2.450000000000009
 11
-3.099999999999987
 21
5.914823227814096
 72
     1
 10
-3.099999999999987
 20
5.914823227814096
 11
0.3648232278140995
 21
2.450000000000009
 97
        3
330
144
330
145
330
146
 75
     0
 76
     1
 98
        1
 10
0.0
 20
0.0
  0
CIRCLE
  5
148
330
141
100
AcDbEntity
  8
Sketch Geometry (ISO)
100
AcDbCircle
 10
-3.099999999999987
 20
-1.014823227814076
 30
0.0
 40
4.900000000000002
  0
LINE
  5
149
330
141
100
AcDbEntity
  8
Sketch Geometry (ISO)
100
AcDbLine
 10
-7.999999999999989
 20
-1.014823227814076
 30
0.0
 11
1.800000000000014
 21
-1.014823227814076
 31
0.0
  0
LINE
  5
14A
330
141
100
AcDbEntity
  8
Sketch Geometry (ISO)
100
AcDbLine
 10
1.800000000000014
 20
-1.014823227814076
 30
0.0
 11
8.000000000000007
 21
-1.014823227814076
 31
0.0
  0
LINE
  5
14B
330
141
100
AcDbEntity
  8
Sketch Geometry (ISO)
100
AcDbLine
 10
-6.564823227814073
 20
2.450000000000009
 30
0.0
 11
-3.099999999999987
 21
5.914823227814096
 31
0.0
  0
LINE
  5
14C
330
141
100
AcDbEntity
  8
Sketch Geometry (ISO)
100
AcDbLine
 10
-3.099999999999987
 20
5.914823227814096
 30
0.0
 11
0.3648232278140995
 21
2.450000000000009
 31
0.0
  0
ATTDEF
  5
14D
330
141
100
AcDbEntity
  8
Symbol (ISO)
100
AcDbText
 10
-3.974999985098826
 20
0.1851767721859332
 30
0.0
 40
2.5
  1
 
 41
0.6999999880790711
  7
Note Text (ISO)-RomanS
 72
     1
 11
-3.099999999999987
 21
1.435176772185933
 31
0.0
100
AcDbAttributeDefinition
  3
SP
  2
SP
 70
     0
 74
     2
  0
ATTDEF
  5
14E
330
141
100
AcDbEntity
  8
Symbol (ISO)
100
AcDbText
 10
-3.974999985098826
 20
-4.714823227814086
 30
0.0
 40
2.5
  1
 
 41
0.6999999880790711
  7
Note Text (ISO)-RomanS
 72
     1
 11
-3.099999999999987
 21
-3.464823227814086
 31
0.0
100
AcDbAttributeDefinition
  3
DT
  2
DT
 70
     0
 74
     2
  0
ENDBLK
  5
143
330
141
100
AcDbEntity
  8
0
100
AcDbBlockEnd
  0
BLOCK
  5
150
330
14F
100
AcDbEntity
  8
0
100
AcDbBlockBegin
  2
SECT-BALL-R-U
 70
     2
 10
0.0
 20
0.0
 30
0.0
  3
SECT-BALL-R-U
  1

  0
ARC
  5
152
102
{ACAD_REACTORS
330
155
102
}
330
14F
100
AcDbEntity
  8
0
100
AcDbCircle
 10
3.099999999999987
 20
-1.014823227814076
 30
0.0
 40
4.900000000000002
100
AcDbArc
 50
45.0
 51
135.0
  0
LINE
  5
153
102
{ACAD_REACTORS
330
155
102
}
330
14F
100
AcDbEntity
  8
0
100
AcDbLine
 10
3.099999999999987
 20
5.914823227814096
 30
0.0
 11
-0.3648232278140995
 21
2.450000000000009
 31
0.0
  0
LINE
  5
154
102
{ACAD_REACTORS
330
155
102
}
330
14F
100
AcDbEntity
  8
0
100
AcDbLine
 10
6.564823227814073
 20
2.450000000000009
 30
0.0
 11
3.099999999999987
 21
5.914823227814096
 31
0.0
  0
HATCH
  5
155
330
14F
100
AcDbEntity
  8
Hatch (ISO)
100
AcDbHatch
 10
0.0
 20
0.0
 30
0.0
210
0.0
220
0.0
230
1.0
  2
SOLID
 70
     1
 71
     1
 91
        1
 92
        1
 93
        3
 72
     2
 10
3.099999999999987
 20
-1.014823227814076
 40
4.900000000000002
 50
45.0
 51
135.0
 73
     1
 72
     1
 10
-0.3648232278140995
 20
2.450000000000009
 11
3.099999999999987
 21
5.914823227814096
 72
     1
 10
3.099999999999987
 20
5.914823227814096
 11
6.564823227814073
 21
2.450000000000009
 97
        3
330
152
330
153
330
154
 75
     0
 76
     1
 98
        1
 10
0.0
 20
0.0
  0
CIRCLE
  5
156
330
14F
100
AcDbEntity
  8
Sketch Geometry (ISO)
100
AcDbCircle
 10
3.099999999999987
 20
-1.014823227814076
 30
0.0
 40
4.900000000000002
  0
LINE
  5
157
330
14F
100
AcDbEntity
  8
Sketch Geometry (ISO)
100
AcDbLine
 10
-1.800000000000014
 20
-1.014823227814076
 30
0.0
 11
7.999999999999989
 21
-1.014823227814076
 31
0.0
  0
LINE
  5
158
330
14F
100
AcDbEntity
  8
Sketch Geometry (ISO)
100
AcDbLine
 10
-0.3648232278140995
 20
2.450000000000009
 30
0.0
 11
3.099999999999987
 21
5.914823227814096
 31
0.0
  0
LINE
  5
159
330
14F
100
AcDbEntity
  8
Sketch Geometry (ISO)
100
AcDbLine
 10
3.099999999999987
 20
5.914823227814096
 30
0.0
 11
6.564823227814073
 21
2.450000000000009
 31
0.0
  0
LINE
  5
15A
330
14F
100
AcDbEntity
  8
Sketch Geometry (ISO)
100
AcDbLine
 10
-1.800000000000014
 20
-1.014823227814076
 30
0.0
 11
-8.000000000000007
 21
-1.014823227814076
 31
0.0
  0
ATTDEF
  5
15B
330
14F
100
AcDbEntity
  8
Symbol (ISO)
100
AcDbText
 10
2.225000014901148
 20
0.1851767721859332
 30
0.0
 40
2.5
  1
 
 41
0.6999999880790711
  7
Note Text (ISO)-RomanS
 72
     1
 11
3.099999999999987
 21
1.435176772185933
 31
0.0
100
AcDbAttributeDefinition
  3
SP
  2
SP
 70
     0
 74
     2
  0
ATTDEF
  5
15C
330
14F
100
AcDbEntity
  8
Symbol (ISO)
100
AcDbText
 10
2.225000014901148
 20
-4.714823227814086
 30
0.0
 40
2.5
  1
 
 41
0.6999999880790711
  7
Note Text (ISO)-RomanS
 72
     1
 11
3.099999999999987
 21
-3.464823227814086
 31
0.0
100
AcDbAttributeDefinition
  3
DT
  2
DT
 70
     0
 74
     2
  0
ENDBLK
  5
151
330
14F
100
AcDbEntity
  8
0
100
AcDbBlockEnd
  0
BLOCK
  5
15E
330
15D
100
AcDbEntity
  8
0
100
AcDbBlockBegin
  2
SECT-BALL-U-L
 70
     2
 10
0.0
 20
0.0
 30
0.0
  3
SECT-BALL-U-L
  1

  0
ARC
  5
160
102
{ACAD_REACTORS
330
163
102
}
330
15D
100
AcDbEntity
  8
0
100
AcDbCircle
 10
1.014823227814076
 20
3.099999999999987
 30
0.0
 40
4.9
100
AcDbArc
 50
134.9999999999996
 51
224.9999999999996
  0
LINE
  5
161
102
{ACAD_REACTORS
330
163
102
}
330
15D
100
AcDbEntity
  8
0
100
AcDbLine
 10
-5.914823227814078
 20
3.099999999999987
 30
0.0
 11
-2.450000000000045
 21
-0.3648232278140995
 31
0.0
  0
LINE
  5
162
102
{ACAD_REACTORS
330
163
102
}
330
15D
100
AcDbEntity
  8
0
100
AcDbLine
 10
-2.449999999999956
 20
6.564823227814073
 30
0.0
 11
-5.914823227814078
 21
3.099999999999987
 31
0.0
  0
HATCH
  5
163
330
15D
100
AcDbEntity
  8
Hatch (ISO)
 62
     7
100
AcDbHatch
 10
0.0
 20
0.0
 30
0.0
210
0.0
220
0.0
230
1.0
  2
SOLID
 70
     1
 71
     1
 91
        1
 92
        1
 93
        3
 72
     2
 10
1.014823227814076
 20
3.099999999999987
 40
4.9
 50
134.9999999999996
 51
224.9999999999996
 73
     1
 72
     1
 10
-2.450000000000045
 20
-0.3648232278140995
 11
-5.914823227814078
 21
3.099999999999987
 72
     1
 10
-5.914823227814078
 20
3.099999999999987
 11
-2.449999999999956
 21
6.564823227814073
 97
        3
330
160
330
161
330
162
 75
     0
 76
     1
 98
        1
 10
0.0
 20
0.0
  0
CIRCLE
  5
164
330
15D
100
AcDbEntity
  8
Sketch Geometry (ISO)
100
AcDbCircle
 10
1.014823227814076
 20
3.099999999999987
 30
0.0
 40
4.9
  0
LINE
  5
165
330
15D
100
AcDbEntity
  8
Sketch Geometry (ISO)
100
AcDbLine
 10
-3.885176772185925
 20
3.100000000000022
 30
0.0
 11
5.914823227814078
 21
3.100000000000022
 31
0.0
  0
LINE
  5
166
330
15D
100
AcDbEntity
  8
Sketch Geometry (ISO)
100
AcDbLine
 10
-2.449999999999956
 20
6.564823227814073
 30
0.0
 11
-5.914823227814078
 21
3.099999999999987
 31
0.0
  0
LINE
  5
167
330
15D
100
AcDbEntity
  8
Sketch Geometry (ISO)
100
AcDbLine
 10
-5.914823227814078
 20
3.099999999999987
 30
0.0
 11
-2.450000000000045
 21
-0.3648232278140995
 31
0.0
  0
LINE
  5
168
330
15D
100
AcDbEntity
  8
Sketch Geometry (ISO)
100
AcDbLine
 10
1.014823227814076
 20
-1.799999999999997
 30
0.0
 11
1.014823227814076
 21
-8.000000000000007
 31
0.0
  0
ATTDEF
  5
169
330
15D
100
AcDbEntity
  8
Symbol (ISO)
100
AcDbText
 10
0.1398232427152378
 20
4.299999999999997
 30
0.0
 40
2.5
  1
 
 41
0.6999999880790711
  7
Note Text (ISO)-RomanS
 72
     1
 11
1.014823227814076
 21
5.549999999999997
 31
0.0
100
AcDbAttributeDefinition
  3
SP
  2
SP
 70
     0
 74
     2
  0
ATTDEF
  5
16A
330
15D
100
AcDbEntity
  8
Symbol (ISO)
100
AcDbText
 10
0.1398232427152378
 20
-0.6000000000000228
 30
0.0
 40
2.5
  1
 
 41
0.6999999880790711
  7
Note Text (ISO)-RomanS
 72
     1
 11
1.014823227814076
 21
0.6499999999999773
 31
0.0
100
AcDbAttributeDefinition
  3
DT
  2
DT
 70
     0
 74
     2
  0
ENDBLK
  5
15F
330
15D
100
AcDbEntity
  8
0
100
AcDbBlockEnd
  0
BLOCK
  5
16C
330
16B
100
AcDbEntity
  8
0
100
AcDbBlockBegin
  2
SECT-BALL-U-R
 70
     2
 10
0.0
 20
0.0
 30
0.0
  3
SECT-BALL-U-R
  1

  0
ARC
  5
16E
102
{ACAD_REACTORS
330
171
102
}
330
16B
100
AcDbEntity
  8
0
100
AcDbCircle
 10
-1.014823227814112
 20
3.100000000000022
 30
0.0
 40
4.900000000000002
100
AcDbArc
 50
315.0
 51
45.00000000000031
  0
LINE
  5
16F
102
{ACAD_REACTORS
330
171
102
}
330
16B
100
AcDbEntity
  8
0
100
AcDbLine
 10
5.914823227814061
 20
3.100000000000022
 30
0.0
 11
2.449999999999974
 21
6.564823227814144
 31
0.0
  0
LINE
  5
170
102
{ACAD_REACTORS
330
171
102
}
330
16B
100
AcDbEntity
  8
0
100
AcDbLine
 10
2.449999999999974
 20
-0.3648232278140639
 30
0.0
 11
5.914823227814061
 21
3.100000000000022
 31
0.0
  0
HATCH
  5
171
330
16B
100
AcDbEntity
  8
Hatch (ISO)
100
AcDbHatch
 10
0.0
 20
0.0
 30
0.0
210
0.0
220
0.0
230
1.0
  2
SOLID
 70
     1
 71
     1
 91
        1
 92
        1
 93
        3
 72
     2
 10
-1.014823227814112
 20
3.100000000000022
 40
4.900000000000002
 50
315.0
 51
405.0000000000002
 73
     1
 72
     1
 10
2.449999999999974
 20
6.564823227814144
 11
5.914823227814061
 21
3.100000000000022
 72
     1
 10
5.914823227814061
 20
3.100000000000022
 11
2.449999999999974
 21
-0.3648232278140639
 97
        3
330
16E
330
16F
330
170
 75
     0
 76
     1
 98
        1
 10
0.0
 20
0.0
  0
CIRCLE
  5
172
330
16B
100
AcDbEntity
  8
Sketch Geometry (ISO)
100
AcDbCircle
 10
-1.014823227814112
 20
3.100000000000022
 30
0.0
 40
4.900000000000002
  0
LINE
  5
173
330
16B
100
AcDbEntity
  8
Sketch Geometry (ISO)
100
AcDbLine
 10
-5.914823227814096
 20
3.100000000000022
 30
0.0
 11
3.885176772185872
 21
3.100000000000058
 31
0.0
  0
LINE
  5
174
330
16B
100
AcDbEntity
  8
Sketch Geometry (ISO)
100
AcDbLine
 10
2.449999999999974
 20
6.564823227814144
 30
0.0
 11
5.914823227814061
 21
3.100000000000022
 31
0.0
  0
LINE
  5
175
330
16B
100
AcDbEntity
  8
Sketch Geometry (ISO)
100
AcDbLine
 10
5.914823227814061
 20
3.100000000000022
 30
0.0
 11
2.449999999999974
 21
-0.3648232278140639
 31
0.0
  0
LINE
  5
176
330
16B
100
AcDbEntity
  8
Sketch Geometry (ISO)
100
AcDbLine
 10
-1.014823227814112
 20
-1.799999999999997
 30
0.0
 11
-1.014823227814112
 21
-8.000000000000007
 31
0.0
  0
ATTDEF
  5
177
330
16B
100
AcDbEntity
  8
Symbol (ISO)
100
AcDbText
 10
-1.889823212912951
 20
4.300000000000032
 30
0.0
 40
2.5
  1
 
 41
0.6999999880790711
  7
Note Text (ISO)-RomanS
 72
     1
 11
-1.014823227814112
 21
5.550000000000032
 31
0.0
100
AcDbAttributeDefinition
  3
SP
  2
SP
 70
     0
 74
     2
  0
ATTDEF
  5
178
330
16B
100
AcDbEntity
  8
Symbol (ISO)
100
AcDbText
 10
-1.889823212912951
 20
-0.5999999999999872
 30
0.0
 40
2.5
  1
 
 41
0.6999999880790711
  7
Note Text (ISO)-RomanS
 72
     1
 11
-1.014823227814112
 21
0.6500000000000128
 31
0.0
100
AcDbAttributeDefinition
  3
DT
  2
DT
 70
     0
 74
     2
  0
ENDBLK
  5
16D
330
16B
100
AcDbEntity
  8
0
100
AcDbBlockEnd
  0
BLOCK
  5
17A
330
179
100
AcDbEntity
  8
0
100
AcDbBlockBegin
  2
SECT-FLAG-L-D
 70
     0
 10
0.0
 20
0.0
 30
0.0
  3
SECT-FLAG-L-D
  1

  0
LINE
  5
17C
102
{ACAD_REACTORS
330
17F
102
}
330
179
100
AcDbEntity
  8
0
100
AcDbLine
 10
-5.75000000000001
 20
1.429289321881341
 30
0.0
 11
-2.750000000000003
 21
-1.570710678118665
 31
0.0
  0
LINE
  5
17D
102
{ACAD_REACTORS
330
17F
102
}
330
179
100
AcDbEntity
  8
0
100
AcDbLine
 10
0.249999999999968
 20
1.429289321881341
 30
0.0
 11
-5.75000000000001
 21
1.429289321881341
 31
0.0
  0
LINE
  5
17E
102
{ACAD_REACTORS
330
17F
102
}
330
179
100
AcDbEntity
  8
0
100
AcDbLine
 10
-2.750000000000003
 20
-1.570710678118665
 30
0.0
 11
0.249999999999968
 21
1.429289321881341
 31
0.0
  0
HATCH
  5
17F
330
179
100
AcDbEntity
  8
Hatch (ISO)
100
AcDbHatch
 10
0.0
 20
0.0
 30
0.0
210
0.0
220
0.0
230
1.0
  2
SOLID
 70
     1
 71
     1
 91
        1
 92
        1
 93
        3
 72
     1
 10
-5.75000000000001
 20
1.429289321881341
 11
-2.750000000000003
 21
-1.570710678118665
 72
     1
 10
-2.750000000000003
 20
-1.570710678118665
 11
0.249999999999968
 21
1.429289321881341
 72
     1
 10
0.249999999999968
 20
1.429289321881341
 11
-5.75000000000001
 21
1.429289321881341
 97
        3
330
17C
330
17E
330
17D
 75
     0
 76
     1
 98
        1
 10
0.0
 20
0.0
  0
LINE
  5
180
330
179
100
AcDbEntity
  8
Sketch Geometry (ISO)
100
AcDbLine
 10
-6.150000000000002
 20
1.429289321881341
 30
0.0
 11
6.150000000000002
 21
1.429289321881341
 31
0.0
  0
LINE
  5
181
330
179
100
AcDbEntity
  8
Sketch Geometry (ISO)
100
AcDbLine
 10
-5.75000000000001
 20
1.429289321881341
 30
0.0
 11
-2.750000000000003
 21
-1.570710678118665
 31
0.0
  0
LINE
  5
182
330
179
100
AcDbEntity
  8
Sketch Geometry (ISO)
100
AcDbLine
 10
-2.750000000000003
 20
-1.570710678118665
 30
0.0
 11
0.249999999999968
 21
1.429289321881341
 31
0.0
  0
LINE
  5
183
330
179
100
AcDbEntity
  8
Sketch Geometry (ISO)
100
AcDbLine
 10
-5.75000000000001
 20
1.429289321881341
 30
0.0
 11
-5.891421356237316
 21
1.570710678118665
 31
0.0
  0
LINE
  5
184
330
179
100
AcDbEntity
  8
Sketch Geometry (ISO)
100
AcDbLine
 10
0.249999999999968
 20
1.429289321881341
 30
0.0
 11
0.3914213562372737
 21
1.570710678118665
 31
0.0
  0
ENDBLK
  5
17B
330
179
100
AcDbEntity
  8
0
100
AcDbBlockEnd
  0
BLOCK
  5
186
330
185
100
AcDbEntity
  8
0
100
AcDbBlockBegin
  2
SECT-FLAG-R-D
 70
     0
 10
0.0
 20
0.0
 30
0.0
  3
SECT-FLAG-R-D
  1

  0
LINE
  5
188
102
{ACAD_REACTORS
330
18B
102
}
330
185
100
AcDbEntity
  8
0
100
AcDbLine
 10
-0.249999999999968
 20
1.429289321881341
 30
0.0
 11
2.750000000000039
 21
-1.570710678118665
 31
0.0
  0
LINE
  5
189
102
{ACAD_REACTORS
330
18B
102
}
330
185
100
AcDbEntity
  8
0
100
AcDbLine
 10
5.75000000000001
 20
1.429289321881341
 30
0.0
 11
-0.249999999999968
 21
1.429289321881341
 31
0.0
  0
LINE
  5
18A
102
{ACAD_REACTORS
330
18B
102
}
330
185
100
AcDbEntity
  8
0
100
AcDbLine
 10
2.750000000000039
 20
-1.570710678118665
 30
0.0
 11
5.75000000000001
 21
1.429289321881341
 31
0.0
  0
HATCH
  5
18B
330
185
100
AcDbEntity
  8
Hatch (ISO)
100
AcDbHatch
 10
0.0
 20
0.0
 30
0.0
210
0.0
220
0.0
230
1.0
  2
SOLID
 70
     1
 71
     1
 91
        1
 92
        1
 93
        3
 72
     1
 10
-0.249999999999968
 20
1.429289321881341
 11
2.750000000000039
 21
-1.570710678118665
 72
     1
 10
2.750000000000039
 20
-1.570710678118665
 11
5.75000000000001
 21
1.429289321881341
 72
     1
 10
5.75000000000001
 20
1.429289321881341
 11
-0.249999999999968
 21
1.429289321881341
 97
        3
330
188
330
18A
330
189
 75
     0
 76
     1
 98
        1
 10
0.0
 20
0.0
  0
LINE
  5
18C
330
185
100
AcDbEntity
  8
Sketch Geometry (ISO)
100
AcDbLine
 10
-6.150000000000002
 20
1.429289321881341
 30
0.0
 11
6.150000000000002
 21
1.429289321881341
 31
0.0
  0
LINE
  5
18D
330
185
100
AcDbEntity
  8
Sketch Geometry (ISO)
100
AcDbLine
 10
-0.249999999999968
 20
1.429289321881341
 30
0.0
 11
2.750000000000039
 21
-1.570710678118665
 31
0.0
  0
LINE
  5
18E
330
185
100
AcDbEntity
  8
Sketch Geometry (ISO)
100
AcDbLine
 10
2.750000000000039
 20
-1.570710678118665
 30
0.0
 11
5.75000000000001
 21
1.429289321881341
 31
0.0
  0
LINE
  5
18F
330
185
100
AcDbEntity
  8
Sketch Geometry (ISO)
100
AcDbLine
 10
-0.249999999999968
 20
1.429289321881341
 30
0.0
 11
-0.3914213562372737
 21
1.570710678118665
 31
0.0
  0
LINE
  5
190
330
185
100
AcDbEntity
  8
Sketch Geometry (ISO)
100
AcDbLine
 10
5.75000000000001
 20
1.429289321881341
 30
0.0
 11
5.891421356237316
 21
1.570710678118665
 31
0.0
  0
ENDBLK
  5
187
330
185
100
AcDbEntity
  8
0
100
AcDbBlockEnd
  0
BLOCK
  5
192
330
191
100
AcDbEntity
  8
0
100
AcDbBlockBegin
  2
SECT-FLAG-L-U
 70
     0
 10
0.0
 20
0.0
 30
0.0
  3
SECT-FLAG-L-U
  1

  0
LINE
  5
194
102
{ACAD_REACTORS
330
197
102
}
330
191
100
AcDbEntity
  8
0
100
AcDbLine
 10
-5.75000000000001
 20
-1.429289321881341
 30
0.0
 11
0.2499999999999858
 21
-1.429289321881341
 31
0.0
  0
LINE
  5
195
102
{ACAD_REACTORS
330
197
102
}
330
191
100
AcDbEntity
  8
0
100
AcDbLine
 10
-2.750000000000003
 20
1.570710678118665
 30
0.0
 11
-5.75000000000001
 21
-1.429289321881341
 31
0.0
  0
LINE
  5
196
102
{ACAD_REACTORS
330
197
102
}
330
191
100
AcDbEntity
  8
0
100
AcDbLine
 10
0.2499999999999858
 20
-1.429289321881341
 30
0.0
 11
-2.750000000000003
 21
1.570710678118665
 31
0.0
  0
HATCH
  5
197
330
191
100
AcDbEntity
  8
Hatch (ISO)
100
AcDbHatch
 10
0.0
 20
0.0
 30
0.0
210
0.0
220
0.0
230
1.0
  2
SOLID
 70
     1
 71
     1
 91
        1
 92
        1
 93
        3
 72
     1
 10
-5.75000000000001
 20
-1.429289321881341
 11
0.2499999999999858
 21
-1.429289321881341
 72
     1
 10
0.2499999999999858
 20
-1.429289321881341
 11
-2.750000000000003
 21
1.570710678118665
 72
     1
 10
-2.750000000000003
 20
1.570710678118665
 11
-5.75000000000001
 21
-1.429289321881341
 97
        3
330
194
330
196
330
195
 75
     0
 76
     1
 98
        1
 10
0.0
 20
0.0
  0
LINE
  5
198
330
191
100
AcDbEntity
  8
Sketch Geometry (ISO)
100
AcDbLine
 10
-6.150000000000002
 20
-1.429289321881341
 30
0.0
 11
6.150000000000002
 21
-1.429289321881341
 31
0.0
  0
LINE
  5
199
330
191
100
AcDbEntity
  8
Sketch Geometry (ISO)
100
AcDbLine
 10
-5.891421356237316
 20
-1.570710678118629
 30
0.0
 11
-5.75000000000001
 21
-1.429289321881341
 31
0.0
  0
LINE
  5
19A
330
191
100
AcDbEntity
  8
Sketch Geometry (ISO)
100
AcDbLine
 10
-5.75000000000001
 20
-1.429289321881341
 30
0.0
 11
-2.750000000000003
 21
1.570710678118665
 31
0.0
  0
LINE
  5
19B
330
191
100
AcDbEntity
  8
Sketch Geometry (ISO)
100
AcDbLine
 10
-2.750000000000003
 20
1.570710678118665
 30
0.0
 11
0.2499999999999858
 21
-1.429289321881341
 31
0.0
  0
LINE
  5
19C
330
191
100
AcDbEntity
  8
Sketch Geometry (ISO)
100
AcDbLine
 10
0.2499999999999858
 20
-1.429289321881341
 30
0.0
 11
0.3914213562373092
 21
-1.570710678118629
 31
0.0
  0
ENDBLK
  5
193
330
191
100
AcDbEntity
  8
0
100
AcDbBlockEnd
  0
BLOCK
  5
19E
330
19D
100
AcDbEntity
  8
0
100
AcDbBlockBegin
  2
SECT-FLAG-R-U
 70
     0
 10
0.0
 20
0.0
 30
0.0
  3
SECT-FLAG-R-U
  1

  0
LINE
  5
1A0
102
{ACAD_REACTORS
330
1A3
102
}
330
19D
100
AcDbEntity
  8
0
100
AcDbLine
 10
-0.2499999999999858
 20
-1.429289321881341
 30
0.0
 11
5.75000000000001
 21
-1.429289321881341
 31
0.0
  0
LINE
  5
1A1
102
{ACAD_REACTORS
330
1A3
102
}
330
19D
100
AcDbEntity
  8
0
100
AcDbLine
 10
2.750000000000021
 20
1.570710678118665
 30
0.0
 11
-0.2499999999999858
 21
-1.429289321881341
 31
0.0
  0
LINE
  5
1A2
102
{ACAD_REACTORS
330
1A3
102
}
330
19D
100
AcDbEntity
  8
0
100
AcDbLine
 10
5.75000000000001
 20
-1.429289321881341
 30
0.0
 11
2.750000000000021
 21
1.570710678118665
 31
0.0
  0
HATCH
  5
1A3
330
19D
100
AcDbEntity
  8
Hatch (ISO)
100
AcDbHatch
 10
0.0
 20
0.0
 30
0.0
210
0.0
220
0.0
230
1.0
  2
SOLID
 70
     1
 71
     1
 91
        1
 92
        1
 93
        3
 72
     1
 10
-0.2499999999999858
 20
-1.429289321881341
 11
5.75000000000001
 21
-1.429289321881341
 72
     1
 10
5.75000000000001
 20
-1.429289321881341
 11
2.750000000000021
 21
1.570710678118665
 72
     1
 10
2.750000000000021
 20
1.570710678118665
 11
-0.2499999999999858
 21
-1.429289321881341
 97
        3
330
1A0
330
1A2
330
1A1
 75
     0
 76
     1
 98
        1
 10
0.0
 20
0.0
  0
LINE
  5
1A4
330
19D
100
AcDbEntity
  8
Sketch Geometry (ISO)
100
AcDbLine
 10
-6.150000000000002
 20
-1.429289321881341
 30
0.0
 11
6.150000000000002
 21
-1.429289321881341
 31
0.0
  0
LINE
  5
1A5
330
19D
100
AcDbEntity
  8
Sketch Geometry (ISO)
100
AcDbLine
 10
-0.3914213562372914
 20
-1.570710678118629
 30
0.0
 11
-0.2499999999999858
 21
-1.429289321881341
 31
0.0
  0
LINE
  5
1A6
330
19D
100
AcDbEntity
  8
Sketch Geometry (ISO)
100
AcDbLine
 10
-0.2499999999999858
 20
-1.429289321881341
 30
0.0
 11
2.750000000000021
 21
1.570710678118665
 31
0.0
  0
LINE
  5
1A7
330
19D
100
AcDbEntity
  8
Sketch Geometry (ISO)
100
AcDbLine
 10
2.750000000000021
 20
1.570710678118665
 30
0.0
 11
5.75000000000001
 21
-1.429289321881341
 31
0.0
  0
LINE
  5
1A8
330
19D
100
AcDbEntity
  8
Sketch Geometry (ISO)
100
AcDbLine
 10
5.75000000000001
 20
-1.429289321881341
 30
0.0
 11
5.891421356237334
 21
-1.570710678118629
 31
0.0
  0
ENDBLK
  5
19F
330
19D
100
AcDbEntity
  8
0
100
AcDbBlockEnd
  0
BLOCK
  5
1AA
330
1A9
100
AcDbEntity
  8
0
100
AcDbBlockBegin
  2
D___Detailing Blocks_Grid Balloon-48.dwg
 70
     2
 10
0.0
 20
0.0
 30
0.0
  3
D___Detailing Blocks_Grid Balloon-48.dwg
  1

  0
CIRCLE
  5
1AC
330
1A9
100
AcDbEntity
  8
LIST___3CO
100
AcDbCircle
 10
0.0
 20
0.0
 30
0.0
 40
7.5
  0
ATTDEF
  5
1AD
330
1A9
100
AcDbEntity
  8
LIST___3CO
100
AcDbText
 10
-2.261904761904761
 20
-2.5
 30
0.0
 40
5.0
  1
 
  7
NORMAL_168
 72
     1
 11
0.0
 21
0.0
 31
0.0
100
AcDbAttributeDefinition
  3
ITN
  2
ITN
 70
     0
 74
     2
  0
ENDBLK
  5
1AB
330
1A9
100
AcDbEntity
  8
0
100
AcDbBlockEnd
  0
BLOCK
  5
1B0
330
1AF
100
AcDbEntity
  8
0
100
AcDbBlockBegin
  2
FACE LIFT
 70
     0
 10
0.0
 20
0.0
 30
0.0
  3
FACE LIFT
  1

  0
ENDBLK
  5
1B1
330
1AF
100
AcDbEntity
  8
0
100
AcDbBlockEnd
  0
BLOCK
  5
1B3
330
1B2
100
AcDbEntity
  8
0
100
AcDbBlockBegin
  2
PROP PT.
 70
     0
 10
0.0
 20
0.0
 30
0.0
  3
PROP PT.
  1

  0
LINE
  5
1B5
102
{ACAD_REACTORS
330
1B8
102
}
330
1B2
100
AcDbEntity
  8
0
100
AcDbLine
 10
0.0
 20
0.0
 30
0.0
 11
0.0
 21
2.250000000000014
 31
0.0
  0
LINE
  5
1B6
102
{ACAD_REACTORS
330
1B8
102
}
330
1B2
100
AcDbEntity
  8
0
100
AcDbLine
 10
-2.250000000000014
 20
0.0
 30
0.0
 11
0.0
 21
0.0
 31
0.0
  0
ARC
  5
1B7
102
{ACAD_REACTORS
330
1B8
102
}
330
1B2
100
AcDbEntity
  8
0
100
AcDbCircle
 10
0.0
 20
0.0
 30
0.0
 40
2.25
100
AcDbArc
 50
90.0
 51
180.0
  0
HATCH
  5
1B8
330
1B2
100
AcDbEntity
  8
Hatch (ISO)
100
AcDbHatch
 10
0.0
 20
0.0
 30
0.0
210
0.0
220
0.0
230
1.0
  2
SOLID
 70
     1
 71
     1
 91
        1
 92
        1
 93
        3
 72
     1
 10
0.0
 20
0.0
 11
0.0
 21
2.250000000000014
 72
     2
 10
0.0
 20
0.0
 40
2.25
 50
90.0
 51
180.0
 73
     1
 72
     1
 10
-2.250000000000014
 20
0.0
 11
0.0
 21
0.0
 97
        3
330
1B5
330
1B7
330
1B6
 75
     0
 76
     1
 98
        1
 10
0.0
 20
0.0
  0
LINE
  5
1B9
102
{ACAD_REACTORS
330
1BC
102
}
330
1B2
100
AcDbEntity
  8
0
100
AcDbLine
 10
0.0
 20
0.0
 30
0.0
 11
0.0
 21
-2.250000000000014
 31
0.0
  0
LINE
  5
1BA
102
{ACAD_REACTORS
330
1BC
102
}
330
1B2
100
AcDbEntity
  8
0
100
AcDbLine
 10
2.250000000000014
 20
0.0
 30
0.0
 11
0.0
 21
0.0
 31
0.0
  0
ARC
  5
1BB
102
{ACAD_REACTORS
330
1BC
102
}
330
1B2
100
AcDbEntity
  8
0
100
AcDbCircle
 10
0.0
 20
0.0
 30
0.0
 40
2.25
100
AcDbArc
 50
270.0
 51
0.0
  0
HATCH
  5
1BC
330
1B2
100
AcDbEntity
  8
Hatch (ISO)
100
AcDbHatch
 10
0.0
 20
0.0
 30
0.0
210
0.0
220
0.0
230
1.0
  2
SOLID
 70
     1
 71
     1
 91
        1
 92
        1
 93
        3
 72
     1
 10
0.0
 20
0.0
 11
0.0
 21
-2.250000000000014
 72
     2
 10
0.0
 20
0.0
 40
2.25
 50
270.0
 51
360.0
 73
     1
 72
     1
 10
2.250000000000014
 20
0.0
 11
0.0
 21
0.0
 97
        3
330
1B9
330
1BB
330
1BA
 75
     0
 76
     1
 98
        1
 10
0.0
 20
0.0
  0
CIRCLE
  5
1BD
330
1B2
100
AcDbEntity
  8
Sketch Geometry (ISO)
100
AcDbCircle
 10
0.0
 20
0.0
 30
0.0
 40
2.25
  0
LINE
  5
1BE
330
1B2
100
AcDbEntity
  8
Sketch Geometry (ISO)
100
AcDbLine
 10
3.999999999999985
 20
0.0
 30
0.0
 11
-3.999999999999985
 21
0.0
 31
0.0
  0
LINE
  5
1BF
330
1B2
100
AcDbEntity
  8
Sketch Geometry (ISO)
100
AcDbLine
 10
0.0
 20
-3.999999999999985
 30
0.0
 11
0.0
 21
3.999999999999985
 31
0.0
  0
LINE
  5
1C0
330
1B2
100
AcDbEntity
  8
Sketch Geometry (ISO)
100
AcDbLine
 10
0.0
 20
2.250000000000014
 30
0.0
 11
0.0
 21
0.0
 31
0.0
  0
LINE
  5
1C1
330
1B2
100
AcDbEntity
  8
Sketch Geometry (ISO)
100
AcDbLine
 10
0.0
 20
0.0
 30
0.0
 11
-2.250000000000014
 21
0.0
 31
0.0
  0
LINE
  5
1C2
330
1B2
100
AcDbEntity
  8
Sketch Geometry (ISO)
100
AcDbLine
 10
0.0
 20
0.0
 30
0.0
 11
0.0
 21
-2.250000000000014
 31
0.0
  0
LINE
  5
1C3
330
1B2
100
AcDbEntity
  8
Sketch Geometry (ISO)
100
AcDbLine
 10
0.0
 20
0.0
 30
0.0
 11
2.250000000000014
 21
0.0
 31
0.0
  0
ENDBLK
  5
1B4
330
1B2
100
AcDbEntity
  8
0
100
AcDbBlockEnd
  0
BLOCK
  5
1C5
330
1C4
100
AcDbEntity
  8
0
100
AcDbBlockBegin
  2
FERRULE
 70
     0
 10
0.0
 20
0.0
 30
0.0
  3
FERRULE
  1

  0
CIRCLE
  5
1C7
102
{ACAD_REACTORS
330
1C8
102
}
330
1C4
100
AcDbEntity
  8
0
100
AcDbCircle
 10
0.0
 20
0.0
 30
10.0
 40
0.9999999999999998
  0
HATCH
  5
1C8
330
1C4
100
AcDbEntity
  8
Hatch (ISO)
100
AcDbHatch
 10
0.0
 20
0.0
 30
0.0
210
0.0
220
0.0
230
1.0
  2
SOLID
 70
     1
 71
     1
 91
        1
 92
        1
 93
        1
 72
     2
 10
0.0
 20
0.0
 40
0.9999999999999998
 50
0.0
 51
360.0
 73
     1
 97
        1
330
1C7
 75
     0
 76
     1
 98
        1
 10
0.0
 20
0.0
  0
CIRCLE
  5
1C9
330
1C4
100
AcDbEntity
  8
Sketch Geometry (ISO)
100
AcDbCircle
 10
0.0
 20
0.0
 30
0.0
 40
0.9999999999999998
  0
LINE
  5
1CA
330
1C4
100
AcDbEntity
  8
Sketch Geometry (ISO)
100
AcDbLine
 10
0.0
 20
-1.499999999999985
 30
0.0
 11
0.0
 21
1.499999999999985
 31
0.0
  0
LINE
  5
1CB
330
1C4
100
AcDbEntity
  8
Sketch Geometry (ISO)
100
AcDbLine
 10
1.500000000000003
 20
0.0
 30
0.0
 11
-1.500000000000003
 21
0.0
 31
0.0
  0
ENDBLK
  5
1C6
330
1C4
100
AcDbEntity
  8
0
100
AcDbBlockEnd
  0
BLOCK
  5
1CD
330
1CC
100
AcDbEntity
  8
0
100
AcDbBlockBegin
  2
A3
 70
     0
 10
0.0
 20
0.0
 30
0.0
  3
A3
  1

  0
MTEXT
  5
1CF
330
1CC
100
AcDbEntity
  8
Symbol (ISO)
100
AcDbMText
 10
-2.98780471086502
 20
2.551448075682856
 30
0.0
 40
5.0
 41
0.0
 71
     1
 72
     1
  1
\fArial|b0|i0;\H5.0000;A3
  7
Note Text (ISO)
 73
     1
 44
1.0
1001
ACAD
1000
MTEXTBEGIN
1070
    73
1070
     1
1070
    44
1040
1.0
1070
    74
1070
     0
1000
MTEXTEND
  0
ENDBLK
  5
1CE
330
1CC
100
AcDbEntity
  8
0
100
AcDbBlockEnd
  0
BLOCK
  5
1D2
330
1D1
100
AcDbEntity
  8
0
100
AcDbBlockBegin
  2
A1
 70
     0
 10
0.0
 20
0.0
 30
0.0
  3
A1
  1

  0
MTEXT
  5
1D4
330
1D1
100
AcDbEntity
  8
Symbol (ISO)
100
AcDbMText
 10
-8.365854024887084
 20
7.026677027461118
 30
0.0
 40
13.99999976158142
 41
0.0
 71
     1
 72
     1
  1
\fArial|b0|i0;\H14.0000;A1
  7
Note Text (ISO)
 73
     1
 44
1.0
1001
ACAD
1000
MTEXTBEGIN
1070
    73
1070
     1
1070
    44
1040
1.0
1070
    74
1070
     0
1000
MTEXTEND
  0
ENDBLK
  5
1D3
330
1D1
100
AcDbEntity
  8
0
100
AcDbBlockEnd
  0
BLOCK
  5
1D6
330
1D5
100
AcDbEntity
  8
0
100
AcDbBlockBegin
  2
A2
 70
     0
 10
0.0
 20
0.0
 30
0.0
  3
A2
  1

  0
MTEXT
  5
1D8
330
1D5
100
AcDbEntity
  8
Symbol (ISO)
100
AcDbMText
 10
-5.975609421730041
 20
5.019054691074416
 30
0.0
 40
10.0
 41
0.0
 71
     1
 72
     1
  1
\fArial|b0|i0;\H10.0000;A2
  7
Note Text (ISO)
 73
     1
 44
1.0
1001
ACAD
1000
MTEXTBEGIN
1070
    73
1070
     1
1070
    44
1040
1.0
1070
    74
1070
     0
1000
MTEXTEND
  0
ENDBLK
  5
1D7
330
1D5
100
AcDbEntity
  8
0
100
AcDbBlockEnd
  0
BLOCK
  5
1DA
330
1D9
100
AcDbEntity
  8
0
100
AcDbBlockBegin
  2
A4
 70
     0
 10
0.0
 20
0.0
 30
0.0
  3
A4
  1

  0
MTEXT
  5
1DC
330
1D9
100
AcDbEntity
  8
Symbol (ISO)
100
AcDbMText
 10
-1.49390235543251
 20
1.249999953433871
 30
0.0
 40
2.5
 41
0.0
 71
     1
 72
     1
  1
\fArial|b0|i0;\H2.5000;A4
  7
Note Text (ISO)
 73
     1
 44
1.0
1001
ACAD
1000
MTEXTBEGIN
1070
    73
1070
     1
1070
    44
1040
1.0
1070
    74
1070
     0
1000
MTEXTEND
  0
ENDBLK
  5
1DB
330
1D9
100
AcDbEntity
  8
0
100
AcDbBlockEnd
  0
BLOCK
  5
1DE
330
1DD
100
AcDbEntity
  8
0
100
AcDbBlockBegin
  2
A0
 70
     0
 10
0.0
 20
0.0
 30
0.0
  3
A0
  1

  0
MTEXT
  5
1E0
330
1DD
100
AcDbEntity
  8
Symbol (ISO)
100
AcDbMText
 10
-11.95121884346008
 20
10.20579230273142
 30
0.0
 40
20.0
 41
0.0
 71
     1
 72
     1
  1
\fArial|b0|i0;\H20.0000;A0
  7
Note Text (ISO)
 73
     1
 44
1.0
1001
ACAD
1000
MTEXTBEGIN
1070
    73
1070
     1
1070
    44
1040
1.0
1070
    74
1070
     0
1000
MTEXTEND
  0
ENDBLK
  5
1DF
330
1DD
100
AcDbEntity
  8
0
100
AcDbBlockEnd
  0
ENDSEC
  0
SECTION
  2
ENTITIES
  0
ARC
  5
1E1
330
37
100
AcDbEntity
  8
Visible (ISO)
100
AcDbCircle
 10
363.743169430359
 20
117.2008901700306
 30
0.0
 40
59.99999999999968
100
AcDbArc
 50
251.3229322705587
 51
270.0
  0
ARC
  5
1E2
330
37
100
AcDbEntity
  8
Visible (ISO)
100
AcDbCircle
 10
363.7431694303602
 20
297.20089017003
 30
0.0
 40
60.00000000000107
100
AcDbArc
 50
90.00000000000019
 51
108.6770677294409
  0
LINE
  5
1E3
330
37
100
AcDbEntity
  8
Visible (ISO)
100
AcDbLine
 10
429.0729947812621
 20
57.200890170031
 30
0.0
 11
363.7431694303591
 21
57.200890170031
 31
0.0
  0
LINE
  5
1E4
330
37
100
AcDbEntity
  8
Visible (ISO)
100
AcDbLine
 10
363.7431694303601
 20
357.200890170031
 30
0.0
 11
429.0729947812621
 21
357.200890170031
 31
0.0
  0
ARC
  5
1E5
330
37
100
AcDbEntity
  8
Visible (ISO)
100
AcDbCircle
 10
429.0729947812621
 20
282.2008901700311
 30
0.0
 40
75.0
100
AcDbArc
 50
0.0
 51
90.0
  0
LINE
  5
1E6
330
37
100
AcDbEntity
  8
Visible (ISO)
100
AcDbLine
 10
504.0729947812621
 20
282.2008901700311
 30
0.0
 11
504.0729947812621
 21
132.200890170031
 31
0.0
  0
ARC
  5
1E7
330
37
100
AcDbEntity
  8
Visible (ISO)
100
AcDbCircle
 10
429.0729947812621
 20
132.200890170031
 30
0.0
 40
75.0
100
AcDbArc
 50
270.0
 51
0.0
  0
ARC
  5
1E8
330
37
100
AcDbEntity
  8
Visible (ISO)
100
AcDbCircle
 10
601.5168030844303
 20
820.599745115734
 30
0.0
 40
802.4999999999909
100
AcDbArc
 50
229.8500833533429
 51
251.3229322705589
  0
ARC
  5
1E9
330
37
100
AcDbEntity
  8
Visible (ISO)
100
AcDbCircle
 10
601.5168030844347
 20
-406.1979647756791
 30
0.0
 40
802.4999999999989
100
AcDbArc
 50
108.6770677294412
 51
130.149916646657
  0
LINE
  5
1EA
330
37
100
AcDbEntity
  8
Visible (ISO)
100
AcDbLine
 10
364.930137638405
 20
230.2008901700311
 30
0.0
 11
364.930137638405
 21
184.200890170031
 31
0.0
  0
LINE
  5
1EB
330
37
100
AcDbEntity
  8
Visible (ISO)
100
AcDbLine
 10
223.2158519241193
 20
230.200890170031
 30
0.0
 11
364.930137638405
 21
230.2008901700311
 31
0.0
  0
LINE
  5
1EC
330
37
100
AcDbEntity
  8
Visible (ISO)
100
AcDbLine
 10
223.2158519241193
 20
184.200890170031
 30
0.0
 11
223.2158519241193
 21
230.2008901700311
 31
0.0
  0
LINE
  5
1ED
330
37
100
AcDbEntity
  8
Visible (ISO)
100
AcDbLine
 10
364.930137638405
 20
184.200890170031
 30
0.0
 11
223.2158519241193
 21
184.200890170031
 31
0.0
  0
INSERT
  5
1EE
330
37
100
AcDbEntity
  8
0
100
AcDbBlockReference
  2
A2
 10
13.80243256203528
 20
14.08224678970281
 30
0.0
  0
ENDSEC
  0
SECTION
  2
OBJECTS
  0
DICTIONARY
  5
C
330
0
100
AcDbDictionary
281
     1
  3
ACAD_COLOR
350
30
  3
ACAD_GROUP
350
D
  3
ACAD_LAYOUT
350
2F
  3
ACAD_MATERIAL
350
10
  3
ACAD_MLINESTYLE
350
2C
  3
ACAD_PLOTSETTINGS
350
2E
  3
ACAD_PLOTSTYLENAME
350
E
  3
ACAD_TABLESTYLE
350
31
  3
ACAD_VISUALSTYLE
350
14
  3
AcDbVariableDictionary
350
1EF
  3
DWGPROPS
350
1F5
  0
DICTIONARY
  5
30
102
{ACAD_REACTORS
330
C
102
}
330
C
100
AcDbDictionary
281
     1
  0
DICTIONARY
  5
D
102
{ACAD_REACTORS
330
C
102
}
330
C
100
AcDbDictionary
281
     1
  0
DICTIONARY
  5
2F
102
{ACAD_REACTORS
330
C
102
}
330
C
100
AcDbDictionary
281
     1
  3
Layout1
350
36
  3
Layout2
350
3E
  3
Model
350
3A
  0
DICTIONARY
  5
10
102
{ACAD_REACTORS
330
C
102
}
330
C
100
AcDbDictionary
281
     1
  3
ByBlock
350
12
  3
ByLayer
350
11
  3
Global
350
13
  0
DICTIONARY
  5
2C
102
{ACAD_REACTORS
330
C
102
}
330
C
100
AcDbDictionary
281
     1
  3
Standard
350
2D
  0
DICTIONARY
  5
2E
102
{ACAD_REACTORS
330
C
102
}
330
C
100
AcDbDictionary
281
     1
  0
ACDBDICTIONARYWDFLT
  5
E
102
{ACAD_REACTORS
330
C
102
}
330
C
100
AcDbDictionary
281
     1
  3
Normal
350
F
100
AcDbDictionaryWithDefault
340
F
  0
DICTIONARY
  5
31
102
{ACAD_REACTORS
330
C
102
}
330
C
100
AcDbDictionary
281
     1
  3
Standard
350
32
  0
DICTIONARY
  5
14
102
{ACAD_REACTORS
330
C
102
}
330
C
100
AcDbDictionary
281
     1
  3
2dWireframe
350
1A
  3
3D Hidden
350
1C
  3
3dWireframe
350
1B
  3
Basic
350
19
  3
Brighten
350
20
  3
ColorChange
350
24
  3
Conceptual
350
1D
  3
Dim
350
1F
  3
Facepattern
350
23
  3
Flat
350
15
  3
FlatWithEdges
350
16
  3
Gouraud
350
17
  3
GouraudWithEdges
350
18
  3
Linepattern
350
22
  3
Realistic
350
1E
  3
Thicken
350
21
  0
DICTIONARY
  5
1EF
102
{ACAD_REACTORS
330
C
102
}
330
C
100
AcDbDictionary
281
     1
  3
CTABLESTYLE
350
1F0
  3
DIMASSOC
350
1F4
  3
HIDETEXT
350
1F3
  3
INDEXCTL
350
1F2
  3
SORTENTS
350
1F1
  0
XRECORD
  5
1F5
102
{ACAD_REACTORS
330
C
102
}
330
C
100
AcDbXrecord
280
     1
  1
DWGPROPS COOKIE
  2

  3

  4
D. Walsh
  6

  7

  8

  9
A
300
Manager=
301
Company=
302
Category=
303
Part Number=Fluke
304
Description=
305
Project=
306
Designer=D. Walsh
307
Engineer=
308
Authority=
309
Cost Center=
 40
0.0000081365740741
 41
2453882.701893808
 42
2453882.701893808
  1

 90
       22
300
Vendor=
300
User Status=
300
Design Status=WorkInProgress
300
Checked by=K. Walsh
300
Engr Approved by=
300
Mfg Approved by=
300
AmdtFileType=84
300
Source=A3
300
CONC. LIFT STRENGTH=25
300
CONC. POUR STRENGTH=40
300
REINFORCEMENT=SL82 MESH (E.F.)
300
TRIMMERS=1/N16 BARS (E.F.)
  0
LAYOUT
  5
36
102
{ACAD_XDICTIONARY
360
1FE
102
}
102
{ACAD_REACTORS
330
2F
102
}
330
2F
100
AcDbPlotSettings
  1

  2

  4

  6

 40
0.0
 41
0.0
 42
0.0
 43
0.0
 44
0.0
 45
0.0
 46
0.0
 47
0.0
 48
0.0
 49
0.0
140
0.0
141
0.0
142
1.0
143
1.0
 70
   688
 72
     0
 73
     0
 74
     5
  7

 75
    16
147
1.0
148
0.0
149
0.0
100
AcDbLayout
  1
Layout1
 70
     1
 71
     1
 10
0.0
 20
0.0
 11
12.0
 21
9.0
 12
0.0
 22
0.0
 32
0.0
 14
0.0
 24
0.0
 34
0.0
 15
0.0
 25
0.0
 35
0.0
146
0.0
 13
0.0
 23
0.0
 33
0.0
 16
1.0
 26
0.0
 36
0.0
 17
0.0
 27
1.0
 37
0.0
 76
     0
330
33
  0
LAYOUT
  5
3E
102
{ACAD_XDICTIONARY
360
202
102
}
102
{ACAD_REACTORS
330
2F
102
}
330
2F
100
AcDbPlotSettings
  1

  2

  4

  6

 40
0.0
 41
0.0
 42
0.0
 43
0.0
 44
0.0
 45
0.0
 46
0.0
 47
0.0
 48
0.0
 49
0.0
140
0.0
141
0.0
142
1.0
143
1.0
 70
   688
 72
     0
 73
     0
 74
     5
  7

 75
    16
147
1.0
148
0.0
149
0.0
100
AcDbLayout
  1
Layout2
 70
     1
 71
     2
 10
0.0
 20
0.0
 11
12.0
 21
9.0
 12
0.0
 22
0.0
 32
0.0
 14
0.0
 24
0.0
 34
0.0
 15
0.0
 25
0.0
 35
0.0
146
0.0
 13
0.0
 23
0.0
 33
0.0
 16
1.0
 26
0.0
 36
0.0
 17
0.0
 27
1.0
 37
0.0
 76
     0
330
3B
  0
LAYOUT
  5
3A
102
{ACAD_XDICTIONARY
360
200
102
}
102
{ACAD_REACTORS
330
2F
102
}
330
2F
100
AcDbPlotSettings
  1

  2

  4

  6

 40
0.0
 41
0.0
 42
0.0
 43
0.0
 44
0.0
 45
0.0
 46
0.0
 47
0.0
 48
0.0
 49
0.0
140
0.0
141
0.0
142
1.0
143
1.0
 70
  1712
 72
     0
 73
     0
 74
     0
  7

 75
     0
147
1.0
148
0.0
149
0.0
100
AcDbLayout
  1
Model
 70
     1
 71
     0
 10
0.0
 20
0.0
 11
12.0
 21
9.0
 12
0.0
 22
0.0
 32
0.0
 14
0.0
 24
0.0
 34
0.0
 15
0.0
 25
0.0
 35
0.0
146
0.0
 13
0.0
 23
0.0
 33
0.0
 16
1.0
 26
0.0
 36
0.0
 17
0.0
 27
1.0
 37
0.0
 76
     0
330
37
  0
MATERIAL
  5
12
102
{ACAD_XDICTIONARY
360
1F8
102
}
102
{ACAD_REACTORS
330
10
102
}
330
10
100
AcDbMaterial
  1
ByBlock
  0
MATERIAL
  5
11
102
{ACAD_XDICTIONARY
360
1F6
102
}
102
{ACAD_REACTORS
330
10
102
}
330
10
100
AcDbMaterial
  1
ByLayer
  0
MATERIAL
  5
13
102
{ACAD_XDICTIONARY
360
1FA
102
}
102
{ACAD_REACTORS
330
10
102
}
330
10
100
AcDbMaterial
  1
Global
  0
MLINESTYLE
  5
2D
102
{ACAD_REACTORS
330
2C
102
}
330
2C
100
AcDbMlineStyle
  2
STANDARD
 70
     0
  3

 62
   256
 51
90.0
 52
90.0
 71
     2
 49
0.5
 62
   256
  6
BYLAYER
 49
-0.5
 62
   256
  6
BYLAYER
  0
ACDBPLACEHOLDER
  5
F
102
{ACAD_REACTORS
330
E
102
}
330
E
  0
TABLESTYLE
  5
32
102
{ACAD_XDICTIONARY
360
1FC
102
}
102
{ACAD_REACTORS
330
31
102
}
330
31
100
AcDbTableStyle
  3
Standard
 70
     0
 71
     0
 40
0.06
 41
0.06
280
     0
281
     0
  7
Standard
140
0.18
170
     2
 62
     0
 63
     7
283
     0
274
    -2
284
     1
 64
     0
275
    -2
285
     1
 65
     0
276
    -2
286
     1
 66
     0
277
    -2
287
     1
 67
     0
278
    -2
288
     1
 68
     0
279
    -2
289
     1
 69
     0
  7
Standard
140
0.25
170
     5
 62
     0
 63
     7
283
     0
274
    -2
284
     1
 64
     0
275
    -2
285
     1
 65
     0
276
    -2
286
     1
 66
     0
277
    -2
287
     1
 67
     0
278
    -2
288
     1
 68
     0
279
    -2
289
     1
 69
     0
  7
Standard
140
0.18
170
     5
 62
     0
 63
     7
283
     0
274
    -2
284
     1
 64
     0
275
    -2
285
     1
 65
     0
276
    -2
286
     1
 66
     0
277
    -2
287
     1
 67
     0
278
    -2
288
     1
 68
     0
279
    -2
289
     1
 69
     0
  0
VISUALSTYLE
  5
1A
102
{ACAD_REACTORS
330
14
102
}
330
14
100
AcDbVisualStyle
  2
2dWireframe
 70
     4
 71
     0
 72
     2
 73
     0
 90
        0
 40
-0.6
 41
-30.0
 62
     5
 63
     7
 74
     1
 91
        4
 64
     7
 65
   257
 75
     1
175
     1
 42
1.0
 92
        0
 66
   257
 43
1.0
 76
     1
 77
     6
 78
     2
 67
     7
 79
     5
170
     0
171
     0
290
     0
174
     0
 93
        1
 44
0.0
173
     0
291
     0
 45
0.0
1001
ACAD
1000
AcDbSavedByObjectVersion
1070
     0
  0
VISUALSTYLE
  5
1C
102
{ACAD_REACTORS
330
14
102
}
330
14
100
AcDbVisualStyle
  2
3D Hidden
 70
     6
 71
     1
 72
     2
 73
     2
 90
        0
 40
-0.6
 41
-30.0
 62
     5
 63
     7
 74
     2
 91
        2
 64
     7
 65
   257
 75
     2
175
     1
 42
40.0
 92
        0
 66
   257
 43
1.0
 76
     1
 77
     6
 78
     2
 67
     7
 79
     3
170
     0
171
     0
290
     0
174
     0
 93
        1
 44
0.0
173
     0
291
     0
 45
0.0
1001
ACAD
1000
AcDbSavedByObjectVersion
1070
     0
  0
VISUALSTYLE
  5
1B
102
{ACAD_REACTORS
330
14
102
}
330
14
100
AcDbVisualStyle
  2
3dWireframe
 70
     5
 71
     0
 72
     2
 73
     0
 90
        0
 40
-0.6
 41
-30.0
 62
     5
 63
     7
 74
     1
 91
        4
 64
     7
 65
   257
 75
     1
175
     1
 42
1.0
 92
        0
 66
   257
 43
1.0
 76
     1
 77
     6
 78
     2
 67
     7
 79
     5
170
     0
171
     0
290
     0
174
     0
 93
        1
 44
0.0
173
     0
291
     0
 45
0.0
1001
ACAD
1000
AcDbSavedByObjectVersion
1070
     0
  0
VISUALSTYLE
  5
19
102
{ACAD_REACTORS
330
14
102
}
330
14
100
AcDbVisualStyle
  2
Basic
 70
     7
 71
     1
 72
     0
 73
     1
 90
        0
 40
-0.6
 41
-30.0
 62
     5
 63
     7
 74
     0
 91
        4
 64
     7
 65
   257
 75
     1
175
     1
 42
1.0
 92
        8
 66
     7
 43
1.0
 76
     1
 77
     6
 78
     2
 67
     7
 79
     5
170
     0
171
     0
290
     0
174
     0
 93
        1
 44
0.0
173
     0
291
     1
 45
0.0
1001
ACAD
1000
AcDbSavedByObjectVersion
1070
     0
  0
VISUALSTYLE
  5
20
102
{ACAD_REACTORS
330
14
102
}
330
14
100
AcDbVisualStyle
  2
Brighten
 70
    12
 71
     2
 72
     2
 73
     0
 90
        0
 40
-0.6
 41
-30.0
 62
     5
 63
     7
 74
     1
 91
        4
 64
     7
 65
   257
 75
     1
175
     1
 42
1.0
 92
        8
 66
     7
 43
1.0
 76
     1
 77
     6
 78
     2
 67
     7
 79
     5
170
     0
171
     0
290
     0
174
     0
 93
        1
 44
50.0
173
     0
291
     1
 45
0.0
1001
ACAD
1000
AcDbSavedByObjectVersion
1070
     0
  0
VISUALSTYLE
  5
24
102
{ACAD_REACTORS
330
14
102
}
330
14
100
AcDbVisualStyle
  2
ColorChange
 70
    16
 71
     2
 72
     2
 73
     3
 90
        0
 40
-0.6
 41
-30.0
 62
     5
 63
     8
 74
     1
 91
        4
 64
     7
 65
   257
 75
     1
175
     1
 42
1.0
 92
        8
 66
     8
 43
1.0
 76
     1
 77
     6
 78
     2
 67
     7
 79
     5
170
     0
171
     0
290
     0
174
     0
 93
        1
 44
0.0
173
     0
291
     1
 45
0.0
1001
ACAD
1000
AcDbSavedByObjectVersion
1070
     0
  0
VISUALSTYLE
  5
1D
102
{ACAD_REACTORS
330
14
102
}
330
14
100
AcDbVisualStyle
  2
Conceptual
 70
     9
 71
     3
 72
     2
 73
     0
 90
        0
 40
-0.6
 41
-30.0
 62
     5
 63
     7
 74
     2
 91
        2
 64
     7
 65
   257
 75
     1
175
     1
 42
40.0
 92
        8
 66
     7
 43
1.0
 76
     1
 77
     6
 78
     2
 67
     7
 79
     3
170
     0
171
     0
290
     0
174
     0
 93
        1
 44
0.0
173
     0
291
     0
 45
0.0
1001
ACAD
1000
AcDbSavedByObjectVersion
1070
     0
  0
VISUALSTYLE
  5
1F
102
{ACAD_REACTORS
330
14
102
}
330
14
100
AcDbVisualStyle
  2
Dim
 70
    11
 71
     2
 72
     2
 73
     0
 90
        0
 40
-0.6
 41
-30.0
 62
     5
 63
     7
 74
     1
 91
        4
 64
     7
 65
   257
 75
     1
175
     1
 42
1.0
 92
        8
 66
     7
 43
1.0
 76
     1
 77
     6
 78
     2
 67
     7
 79
     5
170
     0
171
     0
290
     0
174
     0
 93
        1
 44
-50.0
173
     0
291
     1
 45
0.0
1001
ACAD
1000
AcDbSavedByObjectVersion
1070
     0
  0
VISUALSTYLE
  5
23
102
{ACAD_REACTORS
330
14
102
}
330
14
100
AcDbVisualStyle
  2
Facepattern
 70
    15
 71
     2
 72
     2
 73
     0
 90
        0
 40
-0.6
 41
-30.0
 62
     5
 63
     7
 74
     1
 91
        4
 64
     7
 65
   257
 75
     1
175
     1
 42
1.0
 92
        8
 66
     7
 43
1.0
 76
     1
 77
     6
 78
     2
 67
     7
 79
     5
170
     0
171
     0
290
     0
174
     0
 93
        1
 44
0.0
173
     0
291
     1
 45
0.0
1001
ACAD
1000
AcDbSavedByObjectVersion
1070
     0
  0
VISUALSTYLE
  5
15
102
{ACAD_REACTORS
330
14
102
}
330
14
100
AcDbVisualStyle
  2
Flat
 70
     0
 71
     2
 72
     1
 73
     1
 90
        2
 40
-0.6
 41
30.0
 62
     5
 63
     7
 74
     0
 91
        4
 64
     7
 65
   257
 75
     1
175
     1
 42
1.0
 92
        8
 66
     7
 43
1.0
 76
     1
 77
     6
 78
     2
 67
     7
 79
     5
170
     0
171
     0
290
     0
174
     0
 93
       13
 44
0.0
173
     0
291
     1
 45
0.0
1001
ACAD
1000
AcDbSavedByObjectVersion
1070
     0
  0
VISUALSTYLE
  5
16
102
{ACAD_REACTORS
330
14
102
}
330
14
100
AcDbVisualStyle
  2
FlatWithEdges
 70
     1
 71
     2
 72
     1
 73
     1
 90
        2
 40
-0.6
 41
30.0
 62
     5
 63
     7
 74
     1
 91
        4
 64
     7
 65
   257
 75
     1
175
     1
 42
1.0
 92
        0
 66
   257
 43
1.0
 76
     1
 77
     6
 78
     2
 67
     7
 79
     5
170
     0
171
     0
290
     0
174
     0
 93
       13
 44
0.0
173
     0
291
     1
 45
0.0
1001
ACAD
1000
AcDbSavedByObjectVersion
1070
     0
  0
VISUALSTYLE
  5
17
102
{ACAD_REACTORS
330
14
102
}
330
14
100
AcDbVisualStyle
  2
Gouraud
 70
     2
 71
     2
 72
     2
 73
     1
 90
        2
 40
-0.6
 41
30.0
 62
     5
 63
     7
 74
     0
 91
        4
 64
     7
 65
   257
 75
     1
175
     1
 42
1.0
 92
        0
 66
     7
 43
1.0
 76
     1
 77
     6
 78
     2
 67
     7
 79
     5
170
     0
171
     0
290
     0
174
     0
 93
       13
 44
0.0
173
     0
291
     1
 45
0.0
1001
ACAD
1000
AcDbSavedByObjectVersion
1070
     0
  0
VISUALSTYLE
  5
18
102
{ACAD_REACTORS
330
14
102
}
330
14
100
AcDbVisualStyle
  2
GouraudWithEdges
 70
     3
 71
     2
 72
     2
 73
     1
 90
        2
 40
-0.6
 41
30.0
 62
     5
 63
     7
 74
     1
 91
        4
 64
     7
 65
   257
 75
     1
175
     1
 42
1.0
 92
        0
 66
   257
 43
1.0
 76
     1
 77
     6
 78
     2
 67
     7
 79
     5
170
     0
171
     0
290
     0
174
     0
 93
       13
 44
0.0
173
     0
291
     1
 45
0.0
1001
ACAD
1000
AcDbSavedByObjectVersion
1070
     0
  0
VISUALSTYLE
  5
22
102
{ACAD_REACTORS
330
14
102
}
330
14
100
AcDbVisualStyle
  2
Linepattern
 70
    14
 71
     2
 72
     2
 73
     0
 90
        0
 40
-0.6
 41
-30.0
 62
     5
 63
     7
 74
     1
 91
        4
 64
     7
 65
   257
 75
     7
175
     7
 42
1.0
 92
        8
 66
     7
 43
1.0
 76
     1
 77
     6
 78
     2
 67
     7
 79
     5
170
     0
171
     0
290
     0
174
     0
 93
        1
 44
0.0
173
     0
291
     1
 45
0.0
1001
ACAD
1000
AcDbSavedByObjectVersion
1070
     0
  0
VISUALSTYLE
  5
1E
102
{ACAD_REACTORS
330
14
102
}
330
14
100
AcDbVisualStyle
  2
Realistic
 70
     8
 71
     2
 72
     2
 73
     0
 90
        0
 40
-0.6
 41
-30.0
 62
     5
 63
     7
 74
     1
 91
        0
 64
     7
 65
   257
 75
     1
175
     1
 42
1.0
 92
        8
 66
     8
 43
1.0
 76
     1
 77
     6
 78
     2
 67
     7
 79
     5
170
     0
171
     0
290
     0
174
     0
 93
       13
 44
0.0
173
     0
291
     0
 45
0.0
1001
ACAD
1000
AcDbSavedByObjectVersion
1070
     0
  0
VISUALSTYLE
  5
21
102
{ACAD_REACTORS
330
14
102
}
330
14
100
AcDbVisualStyle
  2
Thicken
 70
    13
 71
     2
 72
     2
 73
     0
 90
        0
 40
-0.6
 41
-30.0
 62
     5
 63
     7
 74
     1
 91
        4
 64
     7
 65
   257
 75
     1
175
     1
 42
1.0
 92
       12
 66
     7
 43
1.0
 76
     1
 77
     6
 78
     2
 67
     7
 79
     5
170
     0
171
     0
290
     0
174
     0
 93
        1
 44
0.0
173
     0
291
     1
 45
0.0
1001
ACAD
1000
AcDbSavedByObjectVersion
1070
     0
  0
DICTIONARYVAR
  5
1F0
102
{ACAD_REACTORS
330
1EF
102
}
330
1EF
100
DictionaryVariables
280
     0
  1
STANDARD
  0
DICTIONARYVAR
  5
1F4
102
{ACAD_REACTORS
330
1EF
102
}
330
1EF
100
DictionaryVariables
280
     0
  1
1
  0
DICTIONARYVAR
  5
1F3
102
{ACAD_REACTORS
330
1EF
102
}
330
1EF
100
DictionaryVariables
280
     0
  1
1
  0
DICTIONARYVAR
  5
1F2
102
{ACAD_REACTORS
330
1EF
102
}
330
1EF
100
DictionaryVariables
280
     0
  1
0
  0
DICTIONARYVAR
  5
1F1
102
{ACAD_REACTORS
330
1EF
102
}
330
1EF
100
DictionaryVariables
280
     0
  1
127
  0
DICTIONARY
  5
1FE
330
36
100
AcDbDictionary
280
     1
281
     1
  3
ACAD_XREC_ROUNDTRIP
360
1FF
  0
DICTIONARY
  5
202
330
3E
100
AcDbDictionary
280
     1
281
     1
  3
ACAD_XREC_ROUNDTRIP
360
203
  0
DICTIONARY
  5
200
330
3A
100
AcDbDictionary
280
     1
281
     1
  3
ACAD_XREC_ROUNDTRIP
360
201
  0
DICTIONARY
  5
1F8
330
12
100
AcDbDictionary
280
     1
281
     1
  3
ACAD_XREC_ROUNDTRIP
360
1F9
  0
DICTIONARY
  5
1F6
330
11
100
AcDbDictionary
280
     1
281
     1
  3
ACAD_XREC_ROUNDTRIP
360
1F7
  0
DICTIONARY
  5
1FA
330
13
100
AcDbDictionary
280
     1
281
     1
  3
ACAD_XREC_ROUNDTRIP
360
1FB
  0
DICTIONARY
  5
1FC
330
32
100
AcDbDictionary
280
     1
281
     1
  3
ACAD_XREC_ROUNDTRIP
360
1FD
  0
XRECORD
  5
1FF
102
{ACAD_REACTORS
330
1FE
102
}
330
1FE
100
AcDbXrecord
280
     1
102
SHADEPLOT
 70
     0
102
SHADEPLOTRESLEVEL
 70
     2
102
SHADEPLOTCUSTOMDPI
 70
   300
  0
XRECORD
  5
203
102
{ACAD_REACTORS
330
202
102
}
330
202
100
AcDbXrecord
280
     1
102
SHADEPLOT
 70
     0
102
SHADEPLOTRESLEVEL
 70
     2
102
SHADEPLOTCUSTOMDPI
 70
   300
  0
XRECORD
  5
201
102
{ACAD_REACTORS
330
200
102
}
330
200
100
AcDbXrecord
280
     1
102
SHADEPLOT
 70
     0
102
SHADEPLOTRESLEVEL
 70
     2
102
SHADEPLOTCUSTOMDPI
 70
   300
  0
XRECORD
  5
1F9
102
{ACAD_REACTORS
330
1F8
102
}
330
1F8
100
AcDbXrecord
280
     1
102
MATERIAL
148
0.0
149
0.0
149
0.0
 93
        0
 94
       63
282
     0
 72
     1
 77
     1
171
     1
175
     1
179
     1
273
     0
  0
XRECORD
  5
1F7
102
{ACAD_REACTORS
330
1F6
102
}
330
1F6
100
AcDbXrecord
280
     1
102
MATERIAL
148
0.0
149
0.0
149
0.0
 93
        0
 94
       63
282
     0
 72
     1
 77
     1
171
     1
175
     1
179
     1
273
     0
  0
XRECORD
  5
1FB
102
{ACAD_REACTORS
330
1FA
102
}
330
1FA
100
AcDbXrecord
280
     1
102
MATERIAL
148
0.0
149
0.0
149
0.0
 93
        0
 94
       63
282
     0
 72
     1
 77
     1
171
     1
175
     1
179
     1
273
     0
  0
XRECORD
  5
1FD
102
{ACAD_REACTORS
330
1FC
102
}
330
1FC
100
AcDbXrecord
280
     1
102
ACAD_ROUNDTRIP_PRE2007_TABLESTYLE
 90
      512
 91
        0
  1

 92
      512
 93
        0
  2

 94
      512
 95
        0
  3

  0
ENDSEC
  0
EOF
